Oops, an error
Loading. Please wait.

Boletos, Pases Y Abonos Tab

58 views 1 this week
no commentswrite comment
1 2 3 4 5
3 more votes to show rating
add to favorites
launch autoscroll
font size
0
reset
how to read this tab
guitar tuner
×
Best way to learn
"Boletos, Pases Y Abonos"
Autoscroll
slow
fast
+/-
esc
set tempo
stop
|Intro|


e---------|--7*(8)*7--|-----|--------3-|---|-------/
b-6*(8)*6-|-----------|-----|----------|-3-|-6-----/
g---------|-----------|-3*--|--3*3//---|---|-8*(9)-/
d---------|-----------|---5-|----------|---|-------/
a---------|-----------|-----|----------|---|-------/
E---------|-----------|-----|----------|---|-------/


e-------------------------------/
b-------------------------------/
g-----------3h5---------3-3-3s5-/
d-x-----x-x-3h5-x-----x-3-3-3s5-/ X 7 (4 por vuelta)
a-x-----x-x-----x-----x---------/
E-x-1h3-x-x-----x-1h3-x---------/

1.|Uh! Me quitan el sol, me sacan a Dios,
  |me secan el sudor

2.| ¿Quién se puede reír de tanto sufrir
  |el frío y el calor,

e|----------------|-----------------/
b|----------------|-----------------/
g|-3-0-x----5--3--|-3-0-x-----5--6--/
d|-3-0-x-3--5--3--|-3-0-x-3---5--6--/
a|-------3--3--1--|-------3---3--4--/
E|-------1--------|-------1---------/

1.|y el sabor

2.|                 y el dolor?


e----2----------4---------7---------2------/
b---3-(3)------5-(5)-----8-(8)-----3-(3)---/
g--2----(2)---4----(4)--7----(7)--2----(2)-/
d-0----------0---------0---------0---------/
a------------------------------------------/
E------------------------------------------/

|¿Quién escupe los ojos sin resistencia
|del que trajo el vino dulce para podernos ver?

e----2----------4---------7-------/
b---3-(3)------5-(5)-----8-(8)----/
g--2----(2)---4----(4)--7----(7)--/
d-0----------0---------0----------/
a---------------------------------/
E---------------------------------/

|¿Quién por poco dinero te supo hacer feliz?
|¿Quién fue amigo de tus hijos?


|  D  |  E  |     A     |  D

e--2-----x--|--5------5-|--2--/
b--3-----9--|---8*(10)--|--3--/
g--2-----9--|-----------|--2--/
d--0-----9--|-----------|--0--/
a--------7--|---|X-5|---|-----/
E--------0--|-----------|-----/

¿Y quién consiguió los boletos para verme cantar?


|  D  |  E  |     A     | C#-D |X3  Eb

e--2-----x--|--5------5-|--------------/
b--3-----9--|---8*(10)--|-6--7------8--/
g--2-----9--|-----------|-6--7------8--/
d--0-----9--|-----------|-6--7------8--/
a--------7--|---|X-5|---|-4--5------6--/
E--------0--|-----------|--------------/

¿Quién les dio un acabado cuadro de su mamá?


e-------------------------------/
b-------------------------------/
g-----------3h5---------3-3-3s5-/
d-x-----x-x-3h5-x-----x-3-3-3s5-/ X 7
a-x-----x-x-----x-----x---------/
E-x-1h3-x-x-----x-1h3-x---------/

1.| Madres, hijas, hermanas van a escuchar
  |el llanto del adiós,

2.| Pronto en esta ciudad me van a nombrar
  |ciudadano legal,
e|----------------|-----------------/
b|----------------|-----------------/
g|-3-0-x----5--3--|-3-0-x-----5--6--/
d|-3-0-x-3--5--3--|-3-0-x-3---5--6--/
a|-------3--3--1--|-------3---3--4--/
E|-------1--------|-------1---------/

1.| del adiós


2.|                 como vos


e----2----------4---------7---------2------/
b---3-(3)------5-(5)-----8-(8)-----3-(3)---/
g--2----(2)---4----(4)--7----(7)--2----(2)-/
d-0----------0---------0---------0---------/
a------------------------------------------/
E------------------------------------------/

|Soy el hijo de todas y el amante también
|¿No se atreve, dulce dama, a ser mi mujer infiel?

e----2----------4---------7-------/
b---3-(3)------5-(5)-----8-(8)----/
g--2----(2)---4----(4)--7----(7)--/
d-0----------0---------0----------/
a---------------------------------/
E---------------------------------/


|Soy el mendigo de azul, el que cantó para el rey
|¿No es verdad noble señora?


|  D  |  E  |     A     |  D

e--2-----x--|--5------5-|--2--/
b--3-----9--|---8*(10)--|--3--/
g--2-----9--|-----------|--2--/
d--0-----9--|-----------|--0--/
a--------7--|---|X-5|---|-----/
E--------0--|-----------|-----/

¿Y quién consiguió los boletos para verme cantar?


|  D  |  E  |     A     | C#-D |X3  E

e--2-----x--|--5------5-|--------------/
b--3-----9--|---8*(10)--|-6--7------9--/
g--2-----9--|-----------|-6--7------9--/
d--0-----9--|-----------|-6--7------9--/
a--------7--|---|X-5|---|-4--5------7--/
E--------0--|-----------|--------------/

¿Quién les dio un acabado cuadro de su mamá?


(2:48) |Teclados|


e----8-7-------------------------/
b---x---10-8-7-------------------/
g--x----------9-7-5-----5-7-7s9--/
d------------------9-7-9---------/
a--------------------------------/
E--------------------------------/

e----10-9-7--7-------------------------------/
b---x------10-10-9-7-------------------------/
g--x----------------9-7s6--------------------/
d------------------------9-7s6---------------/
a-----------------------------9-7-se pierde.-/
E--------------------------------------------/

e------------------------------/
b-------------3--2-1-0---------/
g-4-4-2--4-4-2---------3-2-1---/
d------------------------------/
a------------------------------/
E------------------------------/


(3:38)


e------------|------------------------------/
b------------|------------------------------/
g------------|------------------------------/
d-77-5--77-5-|--77-5-77-5-7-7-5-7-7-5-------/
a------------|-----------------------7------/
E------------|------------------------------/


|Riff|

e----------/
b----------/
g----------/
d---77-5---/ ... |solo de Teclado|
a-------7--/          (3:47)
E----------/


(4:08)

|Solo|

e--------------------------------------------/
b--------------------------------------------/
g-7*9~~--*7-7p5-7-5~-7p5--7-5~-7-5---5-------/
d--------------7--------7----------7---------/
a--------------------------------------------/
E--------------------------------------------/

e--------------------------------------------/
b-----------------8-8888-8s10-10|10~~~~~~-8~-/
g-7p5-7-5~-7p5-7s9---------------------------/
d----7--------7------------------------------/
a--------------------------------------------/
E--------------------------------------------/

e-----------------------------------10.10.10.10-/
b-10p8-10-8*8--10p8-10-8*8--10p8-10-------------/
g-----9------------9------------9---------------/
d-----------------------------------------------/
a-----------------------------------------------/
E-----------------------------------------------/
Suggest correction
Give kudos to tab author, rate the tab!
1 2 3 4 5
comments
print report bad tab
guest
You may want to rate the tab now too:
select rating
Wanna post a correction for this tab? Suggest correction