Oops, an error
Loading. Please wait.
287 views 12 this week
no commentswrite comment
1 2 3 4 5
3 more votes to show rating
add to favorites
launch autoscroll
font size
0
reset
how to read this tab
guitar tuner
×
Best way to learn
"Hipercandombe"
Autoscroll
slow
fast
+/-
esc
set tempo
stop
Riff 1:

E|------------------------------
A|---3-4-5---5-----5-----3-4-5--
D|---------3---5h3---3-5--------
G|------------------------------
B|------------------------------
E|------------------------------

Riff 2:

E|----------------------
A|----------------------
D|----------------------
G|----------------------
B|---8-10-11------------
E|-------------9-10-12--

Riff 3:

E|------------------------------------------------------------
A|------------------------------------------------------------
D|----------------------7--------------------------------7----
G|---7---7-9-10-9-7-6-7-----7-10--------------10-9-7-6-7------
B|-------------------------------13---11-10-8-----------------
E|------------------------------------------------------------

E|--------------------------------
A|--------------------------------
D|-------------------13----13-----
G|---7-10-9--7--10------10----10--
B|--------------------------------
E|--------------------------------

E|-----------------------------------------
A|-----------------------------------------
D|-----------------------------------------
G|---9--7-9-7-9--7-9-7-9-7-9-7-9--7-9-7-9--
B|-----------------------------------------
E|-----------------------------------------


E|------------------------------------------------------------
A|------------------------------------------------------------
D|------------------------------------------------------------
G|---7-9-7-9-10-----------------------------------------------
B|--------------8-10-13--11-13-11-13--11-13-11----11-10-11----
E|---------------------------------------------10-------------

E|------------------------------------------------------------
A|------------------------------------------------------------
D|------------------------------------------------------------
G|------------------12--10------------------------------------
B|---13--11--10-10----------11--13--15--14--15--17------------
E|------------------------------------------------------------

Riff 4:

E|---1-3------------3-5--------------------------------------
A|---3-5------------5-7------------3-5-----------------------
D|---3-5------------5-7------------5-7-----------------------
G|--------10b(12)--------12b(14)---5-7--15b(17)--------------
B|--------8--------------10-------------13-------------------
E|-----------------------------------------------------------

E|-----------------------------------------------------------
A|-----------------------------------------------------------
D|-----------------------------------------------------------
G|------------15b(17)-------15b(17)--------------------------
B|---13p18h13---------18h13---------18h13--------------------
E|----------------------------------------15b(17)------------

E|---1-3------------3-5--------------------------------------
A|---3-5------------5-7------------3-5-----------------------
D|---3-5------------5-7------------5-7-----------------------
G|--------10b(12)--------12b(14)---5-7--15b(17)--------------
B|--------8--------------10-------------13-------------------
E|-----------------------------------------------------------

E|-----------------------------------------------------------
A|-----------------------------------------------------------
D|-----------------------------------------------------------
G|------------15b(17)----------15b(17)----------15b(17)------
B|---13p18h13---------13h18h13---------13h18h13--------------
E|-----------------------------------------------------------


E|---1-3---1-3---1-----
A|---3-5---3-5---3-----
D|---3-5---3-5---3-----
G|---------------------
B|---------------------
E|---------------------

Riff 5:


E|----------------------
A|----------------------
D|---7-10------10h7-----
G|--------10h7----------
B|----------------------
E|----------------------


Intro: (Riff 1)x4 Riff 2 (Riff 3)x2 Riff 4


Dm
Cuando la noche te hace desconfiar
Bb/D
Yendo por el lado del rio
A/D
La paranoia es quizas nuestro peor enemigo.

Cubris tu cara y tu pelo también
Como si tuvieras frío,
Pero en realidad
Te queres escapar de algún lío

Dm
Dejenme en paz,
           G
No quiero más]
            Bb       A      Dm
No hay esperanzas en la ciudad,
Mi amada está lejos de acá,
En un país hipernatural

Cuando las lluvias de gas y alquitrán
Cubran tu cuerpo podrido,
Toda tu caretez
Mi amigo no tendrá más sentido,
Y si te asusta este canto final,
O te parece aburrido,
Podés cambiar el dial
Y escuchar algo más divertido.


Nota:

El Riff 5 solo lo toca la guitarra en la estrofa,
es un riff repetitivo a lo largo de cada estrofa.

15b(17) : Indica hasta que nota ahi que estirar la cuerda

Los acordes de la cancion son los de la tablatura anterior,
solo agregue la introduccion.
Suggest correction
Give kudos to tab author, rate the tab!
1 2 3 4 5
comments
print report bad tab
guest
You may want to rate the tab now too:
select rating
Wanna post a correction for this tab? Suggest correction