Oops, an error
Loading. Please wait.

Por Probar El Vino Y El Agua Salada Tab

version 1
version 1

Whole song

Interactive

82 views 3 this week
no commentswrite comment
1 2 3 4 5
3 more votes to show rating
add to favorites
launch autoscroll
font size
0
reset
how to read this tab
guitar tuner
×
Best way to learn
"Por Probar El Vino Y El Agua Salada"
Autoscroll
slow
fast
+/-
esc
set tempo
stop
INTRO:
   G                    C/G                    G
e|-----0-0-----0-----0------0-0-----0-----0------0-0-----0-----0-----|
B|-----3-3-----3-----3------3-3-----3-----3------3-3-----3-----3-----|
G|----------------------5-------5-----5------------------------------|
D|-4/5-----4/5---4/5----4/5-----4/5---4/5----4/5-----4/5---4/5-------|
A|-------------------------------------------------------------------|
E|-------------------------------------------------------------------|

INTRO
Julia que baila con tachos y calles y el mar
     D          G*   C*  G*  D//-C//
ya será,   ya será
G                C/G                 G
la prometida del rey de los locos, quizas
       D       Em
o tal vez partirá
C          G            Em    C           G
en la madrugada con el nuevo sol en la nariz
       Bm                G7     C
por probar el vino y el agua salada
        Am            D          G
por olvidarse de ser rey y ser feliz

Los cu-cus lloran, los diarios no salen jamás
ya no hay pan, ya no hay sal
las niñas han regalado sus piernas al mar
Satanás volverá
avíen castigarnos por dudar del rey de este lugar
por probar el vino y el agua salada
       Am          D               G//
por la gente murió nuestro rey, en paz

e|-----7-------6--------5-3---3--1--1--3----1---3--5-|
B|-------------------------------------3-------------|
G|--7----7--6------6-5----4---4--2-2-2-0-0/2-2/4-4/6-|
D|-------------------------------------0-------------|
A|-------------------------------------2-------------|
E|-------------------------------------3-------------|
    Como te puedes reír a sí, hermooooosa

Am                 G
cuando forzaste mi mente

e|-----7-------6--------5-3---3--1--1--3----1---3--5-|
B|-------------------------------------3-------------|
G|--7----7--6------6-5----4---4--2-2-2-0-0/2-2/4-4/6-|
D|-------------------------------------0-------------|
A|-------------------------------------2-------------|
E|-------------------------------------3-------------|
    Como te puedes reír a sí, hermooooosa
Am                G
cuando mataste mi gente
Bm                 G7        C
por probar el vino y la mer-me-lada

e|-----------------------3-|
B|-----------------------3-|
G|-----5-5-7/5---5-------4-|
D|-----5-5-7/5---5-------5-|
A|-5h7---------7---7/5/3-5-|
E|-----------------------3-|

Julia que baila con tachos y calles y el mar
ya será nena nena,  ya será
la prometida del rey de los locos, quizas
o tal vez partirá
en la madrugada con el nuevo sol en la nariz
por probar el vino y el agua salada
        Am            D          C     A*     G-C-G
por olvidarse de ser rey y ser feliz


ACORDES DIFÍCILES:

   o o      XXo         XX          XXX
||||0|      |||0|0 VII  |||0|0 XII  |||||0 V
||0|||      ||||0|      ||||0|      ||||||
00||||      ||||||      ||||||      |||00|
||||||      ||||||      ||||||      ||||||
 C/G          G*          C*         D//

XXX         XX         X    X
|||||0 III  |||||0 X   ||||0| 5
||||||      ||||||     |||0||
|||00|      ||000|     |00|||
||||||      ||||||     ||||||
 C//         G//         A*
Suggest correction
Give kudos to tab author, rate the tab!
1 2 3 4 5
comments
print report bad tab
guest
You may want to rate the tab now too:
select rating
Wanna post a correction for this tab? Suggest correction