Oops, an error
Loading. Please wait.

Canción Tab

22 views 3 this week
no commentswrite comment
1 2 3 4 5
3 more votes to show rating
add to favorites
launch autoscroll
font size
0
reset
how to read this tab
guitar tuner
×
Best way to learn
"Canción"
Autoscroll
slow
fast
+/-
esc
set tempo
stop
 

   C                   Fmaj7              C                   Fmaj7

e -------0---------0------0--------0------------0---------0---0---(0)-----
b -------1---------1------1------1---1----------1---------1---1---(1)-----
g -------0---------0---2--2---0h2---------------0---------0---2---(2)-----
d -2--2--2---2--2--2---3--3---------------2--2--2---2--2--2---3---(3)-----
a -3--3--3---3--3--3----------------------3--3--3---3--3--3---------------
e ------------------------------------------------------------------------


C                       Fmaj7   C                          Fmaj7
 Ahora tengo ya tu nombre...      y eso es todo lo que tengo      ......(con arpg 1)
      
C                   Fmaj7 
 Te olvido y te tengo

G          F            C     G
 y eso es todo lo que queda


e -------------------------
b -------------------------
g -------------------------
d -------------------------
a ------0--2--3------------
e ---3---------------------


C                    Fmaj7    C                     Fmaj7
 Como un búfalo herido...       me despeño en los abismos
   
C           Fmaj7
 ansio sin parar .....(con arpg 2)

G       F            C     G
 y quisiera que me vieras.
   

Coro :

                     C                            Fmaj7                       C          
'Lleves flores a mi tumba'... lleves flores a mi tumba...'Lleves flores a mi tumba'

                            Fmaj7                       C                           Fmaj7
 Lleves lleves flores a mi tumba...'Lleves flores a mi tumba'...lleves flores a mi tumba

G    F        C   G
 lleves...lleves

 
                C     Fmaj7             C      Fmaj7
 Oh Señor de Muruhuay... protege a mi chica
        
                C     Fmaj7            
 Oh Señor de Muruhuay

G          F           C    G
 no tengo fe en el paraíso.
  

Solo :

e ---------0--------------------------------0-------------------------------------------------
b -------3---3-1-3--3-s-(5)-5s(0)---------3---3-1-3-1-(1)--s-(8)-8-8--8-8--8-5-3-5-1--1-1-0-3-
g -0-(0)---------------------------0-(0)------------------------------------------------------
d --------------------------------------------------------------------------------------------
a --------------------------------------------------------------------------------------------
e --------------------------------------------------------------------------------------------

e -0------------------------7h8p7h(8)--7h8-7h8------1-0--1-0--1p0-----------
b ---3--1-3-1-(1)--1-3-1-0----------------------1-3----------------3-1-(1)--
g --------------------------------------------------------------------------
d --------------------------------------------------------------------------
a --------------------------------------------------------------------------
e --------------------------------------------------------------------------


C                       Fmaj7   C                          Fmaj7
 Ahora tengo ya tu nombre...      y eso es todo lo que tengo      
      
C                   Fmaj7 
 Te olvido y te tengo

G          F            C     G
 y eso es todo lo que queda


C                    Fmaj7    C                     Fmaj7
 Como un búfalo herido...       me despeño en los abismos
   
C           Fmaj7
 ansio sin parar ...(con arpg 2)

G       F             C     G
 y quisiera que revivieras
   
   
CORO :

                     C                            Fmaj7                       C                  
'Lleves flores a mi tumba'... lleves flores a mi tumba...'Lleves flores a mi tumba'

                            Fmaj7                       C                           Fmaj7
 Lleves lleves flores a mi tumba...'Lleves flores a mi tumba'...lleves flores a mi tumba

G    F        C   G                             C              Fmaj7
 lleves...lleves...lleves..'Lleves flores a mi tumba'... 

                      C            Fmaj7
 'Lleves flores a mi tumba'

                      C            Fmaj7        G     F               C     G             C
 'Lleves flores A [ch]E[/ch] tumba'...              ohhh  lleves flores a mi tumba     lleeeee...ves


Arpg 1 :


   C                   Fmaj7              C                   Fmaj7

e -------0---------0------0--------0------------0---------0-----0-----------------
b -------1---------1------1------1---1----------1---------1-----1-----------------
g -------0---------0---2--2---0h2---------------0---------0--2--2--0h2--0h2p0--0--
d -2--2--2---2--2--2---3--3---------------2--2--2---2--2--2--3--3-----------------
a -3--3--3---3--3--3----------------------3--3--3---3--3--3-----------------------
e --------------------------------------------------------------------------------


Arpg 2 :


e ------0----------0---------
b --------1---1------1---2---
g ----------0----------2-----      (repetirlo en toda esa estrofa)
d ---------------3-----------
a -(3)-----------------------
e ---------------------------


En el último coro, en la segunda parte antes y durante e último ' lleva flores a mi tumba '
toca este riff :


e -----------------------------------------
b -----------------------------------------
g -0h(2)h(4)--0h(2)h(4)--0h(2)h(4)--4--0---      
d -----------------------------------------
a -----------------------------------------
e -----------------------------------------


Comentarios,peticiones,interes en formar bandas,etc...bracho_rhcp@
Suggest correction
Give kudos to tab author, rate the tab!
1 2 3 4 5
comments
print report bad tab
guest
You may want to rate the tab now too:
select rating
Wanna post a correction for this tab? Suggest correction