Oops, an error
Loading. Please wait.

Devuelve Un Corazón Tab

11 views 1 this week
no commentswrite comment
1 2 3 4 5
3 more votes to show rating
add to favorites
launch autoscroll
font size
0
reset
how to read this tab
guitar tuner
Autoscroll
slow
fast
+/-
esc
set tempo
stop
Help us to improve Ultimate-Guitar.com Take our survey!
×


 DEVUELVE UN CORAZÓN

Intro:

 C-F-E-(E-Am)-Am-F-G-C-(F-G)


(el punteo entra en Am)

e --------------------------------------------------------------
b -------0h2p(0)------------------------------------------------
g ---0-2---------2-0-(0)------------------------------0--(0)----
d -2---------------------2-2h3-2-(2)--0h2p(0)-------------------
a ----------------------------------------------2-3-------------
e --------------------------------------------------------------


C           F           E           Am
  Si por veredas de nostalgia al andar

F                G          C    (F-G)
  un deseo te hace mirar atrás.

C                     E       Am           (G-F)
  No tarda el tiempo más que cuando vas a cambiar

                    G              G7
  versos por besos buen destino, grita y vuelve...

  C           F      G             C     F  (G-F-G)  C   (F-G)
  Ahhh na na na ahhh ahh na ra na na ...     oooooh  oh
                          *


C                   F           E                    Am
  Quizás no sea verdad el cuento  que un tipo te contó

F                         G           C    (F-G)
  que entre sus piernas lleve un corazón.

C                   E        Am          (G-F)
  Quizás no sea verdad o el viento se lo llevó o el distraído,

G            G7           C
  entre las tuyas lo olvidóooo.


          F      G             C     F  (G-F-G)  C  F (G-F-G)  C
   na na na ahhh ahh na ra na na ...     oooooh  oh
                      *

Am               E
  Mirando el sooool,

                           Am
  oyendo a orquestas condenadas,

              F            G
  girando en ruedas del pasado;

      C
  un buen malvivir,

       F
  vegetando...

e ---------------------------------
b -------1-------1-----------------
g -0h(2)---0h(2)----0h(2)p(0)---0--
d ----------------------------2----
a ---------------------------------
e ---------------------------------


             G         G7            C
  el tiempo no pide motivos para seguiiiirr

          F      G             C     F  (G-F-G)  C  (F-G)
   na na na ahhh ahh na ra na na ...     oooooh  oh
                      *

e ----------------
b ----------------
g ----------------
d -2h(3)p(2)-0----
a -------------3--
e ----------------

C                    F
  De cara a cara al viento,

E                Am
  lejana a su poder,

F                      G              C   (F-G)
  tal vez un día te encuentres tú con él.

C                   E     Am            (G-F)
  Suéñalo tu y tus manos sola en tu habitación

F                    G             G7
  y si es verdad, envuelto con el tuyo, si...

                   C
  devuelve un corazóooon.

         F      G             C     F  (G-F-G)  C  F (G- F -G)  C  F  (G-F-G)  C  ...FIN
  na na na ahhh ahh na ra na na ...     oooooh  oh    oh oh oh
                     *


Nota : (*) significa tocar

e ----------
b ----------
g -2f-(2)---
d ----------
a ----------
e ----------

  f = full
Suggest correction
Give kudos to tab author, rate the tab!
1 2 3 4 5
comments
print report bad tab
guest
You may want to rate the tab now too:
select rating
Wanna post a correction for this tab? Suggest correction