Oops, an error
Loading. Please wait.

Esos Días Tab

2 views 1 this week
no commentswrite comment
1 2 3 4 5
3 more votes to show rating
add to favorites
launch autoscroll
font size
0
reset
how to read this tab
guitar tuner
Autoscroll
slow
fast
+/-
esc
set tempo
stop
Help us to improve Ultimate-Guitar.com Take our survey!
×
Tabs by: Leonides Loaiza González.
Chapa de combate: Leolion (Léase leolayon).

Es la primera vez que mando algo aquí, está un 98% correcta..
I am a newbie I know!!!

Dedicado a mi princesa Gigi a quien extraño demasiado!!!

Ahí les vá

  //////////////////////////////////////
  /             INTRO                  /
  //////////////////////////////////////

  Cada acorde vale 1 tiempo

   Em    Am              D        G       Em     Am
 e ------------------------------------------------------
 b ----------------------------------------------3s5s3---
 g 7h9¨--7h9-7--------------------7----------------------
 d -------------9-7-55h7p5--5555s7--7h9p7s5h7b5----------
 a ------------------------------------------------------
 e ------------------------------------------------------

         D          G        D           D
 e ---------------7h8b7¨-7----------10^----10^-----------
 b 3s5s8-10-8-(8)----------810^-------(10^)--------------
 g ------------------------------------------------------
 d ------------------------------------------------------
 a ------------------------------------------------------
 e ------------------------------------------------------

     G         G     (*)Am D G
 e ------------------------------------------------------
 b --10p8-10-8-------------------------------------------
 g ------------------------------------------------------
 d ------------------------------------------------------
 a ------------------------------------------------------
 e ------------------------------------------------------

    (*)A partir de aquí cada acorde vale 2 tiempos

  ///////////////////////////////////////
  /             ACOMPAÑAMIENTO          /
  ///////////////////////////////////////

    Esta parte puedes tocarla cuando suene bien, aunque en la
    canción original la tocan de inicio a fin,
    y en el unplugged en algunas partes cambia.

 e ------------------------------------------------------
 b ---3-3------------------------------------------------
 g --2-2-------------------------------------------------
 d ------------------------------------------------------
 a ------------------------------------------------------
 e ------------------------------------------------------


  //////////////////////////////////////
  /             OUTTRO                 /
  //////////////////////////////////////

  Cada acorde vale 2 tiempos

Guitarra 1

   Em                    Am              D              Em
 e --------------------------------------------------------
 b --------------------------------------------------------
 g 7h9¨--7h9-7--------------------7------------------------
 d -------------9-7-55h7p5--5555s7--7h9p7s5h7b5------------
 a ---------------------------------------------5s7-5------
 e ---------------------------------------------------5-3--

Guitarra 2

   Em                   Am               D              Em (Fin)
 e --------------------------------------------------------
 b ---8p7-8p7-8-7------8p7-8p7-8-7------8p7-8p7-8-7--------
 g 79-------------79--9-------------79-9--------------779--
 d --------------------------------------------------------
 a --------------------------------------------------------
 e --------------------------------------------------------


  ///////////////////////////////////////
  /             LETRAS                  /
  ///////////////////////////////////////


  Em          Am     D         G
Algunas horas nada más duran más que tu vida
Em       Am      DG
algunas veces nada más y esa es la herida
Em          Am           D                  G
y mientras todo lo que ya nació a su vez ha muerto
Em          Am           D               G
ha perdido la vista y está viva y ha perdido la razón
Em          Am     D          G
la que en tu mano dejé en forma de recuerdo
Em          Am          D          G
entre cuatro paredes de fierro, paredes largas
Em          Am          D          G
entre cuatro paredes de celda, paredes de prisión
Em          Am          D               G
entre sus cuatro esquinas de lo mismo, como ruge esta canción.
     C       Em          Am               D          G
Y alguna noche, algún jefe soldado corazón que ya está muerto
     Em     Am          D          G
mi viejo corazón rajado en mil que ya está muerto
     Em     Am          D          G
con un orden senil, caprichos tercos, si ya está muerto
     Em           Am          D                 G
de un grito destemplado me hace despertar, si ya está muerto.
          D               G
En esos días el mas terrible de los secretos
          D               G
se ha convertido en el más hermoso de los secretos.
          D G Am D G
En esos dias ah ah ah ah...

Que la disfruten, suena bien para mi.... TQDM princesa de mis sueños!!
Suggest correction
Give kudos to tab author, rate the tab!
1 2 3 4 5
comments
print report bad tab
guest
You may want to rate the tab now too:
select rating
Wanna post a correction for this tab? Suggest correction