Oops, an error
Loading. Please wait.

La Máquina Del Tiempo Tab

version 1
version 1

Whole song

68 views 1 this week
no commentswrite comment
1 2 3 4 5
3 more votes to show rating
add to favorites
launch autoscroll
font size
0
reset
how to read this tab
guitar tuner
×
Best way to learn
"La Máquina Del Tiempo"
Autoscroll
slow
fast
+/-
esc
set tempo
stop
HOLA A TODOS LOS AMANTES DE ESTE HERMOSO INSTRUMENTO LLAMADO GUITARRA, 
AQUI LES DEJO ESTA BUENA CANCIÓN, ESPERO LES GUSTE

INTRO: [ch]A [ch]G LA[/ch] SOL[/ch] 

E|-----------------------------------------------------------------------
B|----------------------------------------------------------------------- 
G|-----------------------------------------------------------------------
D|----2-4-2-4-2-4-2-4-4-5-4-5-4-5-4-5-4-5-4-2--2--2-4-5----2-4-5-4-2-0--- 
A|------------------------------------------------------5---------------- 
E|-----------------------------------------------------------------------

E|-------------------- 
B|-------------------- 
G|--------------------
D|-------------------- 
A|----4-5-4-2-0------- 
E|--------------------

 [ch]A[/ch]          [ch]G[/ch]     [ch]D[/ch]
VI PASAR LA SOLEDAD POR MI CALLE
 [ch]A[/ch]           [ch]G[/ch]      [ch]D[/ch]
VI CRUZAR SU MULTITUD SIN MIRARME
 [ch]Bm        [ch]F#m[/ch]      [ch]G[/ch]       LA[/ch] 
CLARAMENTE PUDE VER QUE NO HABÍA TRISTEZA AHÍ
 [ch]Bm        [ch]F#m[/ch]       [ch]G[/ch]      LA[/ch]
TAMPOCO ESCUCHÉ REÍR, SÓLO VIVÍA Y SE DEJABA VIVIR


E|----------------------------------------
B|---------------------------------------- 
G|----------------------------------------
D|----2-4-2-4-2-4-2-4-4-5-4-5-4-5-4-5-----
A|---------------------------------------- 
E|----------------------------------------

 [ch]A[/ch]             [ch]G[/ch]     [ch]D[/ch]
VI TAMBIÉN LA SUAVIDAD DE UN ROMANCE
 [ch]A[/ch]           [ch]G[/ch]          [ch]D[/ch]
DULCEMENTE EN SU ESPECIE PROLONGARSE
 [ch]Bm        [ch]F#m[/ch]        [ch]G[/ch]         LA[/ch]  
QUISE MIS OJOS CERRAR Y A MIS SUEÑOS ECHAR A ANDAR
 [ch]Bm        [ch]F#m[/ch]        [ch]G[/ch]        LA[/ch]          
SÓLO DAR UN PASO ATRÁS Y SEGUIR CON MI VIAJE

      [ch]D[/ch]
AH AH AH
      [ch]Bm[/ch]
AH AH AH AH AH
      [ch]G[/ch]
AH AH AH
      [ch]A[/ch]
AH AH AH AH AH
      [ch]D[/ch]
AH AH AH
   [ch]F#m[/ch]
AH AH 
      [ch]A[/ch]
AH AH AH AH
      [ch]D[/ch] 
AH AH AH 
   [ch]F#m[/ch]
AH AH
      [ch]A[/ch]
AH AH AH AH

       [ch]G          [ch]F#[/ch]         LA[/ch]        [ch]D[/ch]
EN MI MÁQUINA DEL TIEMPO SIN HALLAR CLARIDAD


[ch]D [ch]G RE[/ch] SOL[/ch]

E|-----------------------------------------------
B|----------------------------------------------- 
G|-----------------------------------------------
D|----4-5-4-2--4-5------2-5-4-2-0----------------
A|-----------------5--5-----------4-5-4-2-0------ 
E|-----------------------------------------------


 [ch]A[/ch]         [ch]G[/ch]         [ch]D[/ch] 
VI PASAR MI VIDA ASÍ, EN UN INSTANTE
 [ch]A[/ch]         [ch]G[/ch]          [ch]D[/ch] 
A QUIEN AMÉ PUDE ODIAR, SIN IMPORTARME
 [ch]Bm         [ch]F#m[/ch]      [ch]G[/ch]          LA[/ch]
SIMPLEMENTE COMPRENDÍ QUE ES MEJOR CALLADO VIVIR
 [ch]Bm         [ch]F#m[/ch]       [ch]G[/ch]         LA[/ch]                  [ch]D[/ch]
Y SEGUIR MI VIAJE ASÍ, SIN PENSAR EN HALLAR TU GRAN CLARIDAD


      [ch]D[/ch]
AH AH AH
      [ch]Bm[/ch]
AH AH AH AH AH
      [ch]G[/ch]
AH AH AH
      [ch]A[/ch]
AH AH AH AH AH
      [ch]D    FA#m[/ch]  
AH AH AH AH AH
      [ch]A[/ch]
AH AH AH AH
      [ch]D    FA#m[/ch]  
AH AH AH AH AH
      [ch]A[/ch]
AH AH AH AH

       [ch]G          [ch]F#[/ch]         LA[/ch]    
EN MI MÁQUINA DEL TIEMPO SIN PARAR


ESTA CANCIÓN ESTA DEDICADA A MI FAMILIA, 
EN ESPECIAL A MI PADRE QUE ME REGALO MI PRIMERA GUITARRA; 
Y A MIS AMIGOS DE 3° AÑO DE ING. AGROINDUSTRIAL DE LA 
UNIVERSIDAD NACIONAL FEDERICO VILLARREAL
Suggest correction
Give kudos to tab author, rate the tab!
1 2 3 4 5
comments
print report bad tab
guest
You may want to rate the tab now too:
select rating
Wanna post a correction for this tab? Suggest correction