Oops, an error
Loading. Please wait.

La Máquina Del Tiempo Tab

version 2
version 2

Whole song

29 views 1 this week
no commentswrite comment
1 2 3 4 5
3 more votes to show rating
add to favorites
launch autoscroll
font size
0
reset
how to read this tab
guitar tuner
Autoscroll
slow
fast
+/-
esc
set tempo
stop
Intro :

 D - G (x2)  G   ...arpegiar en los acordes


    Dsus2-D             G                      Dsus2-D             G                    A
e ------------------------------------------------------------------------------------------
b ------------------------------------------------------------------------------------------
g ------------------------------------------------------------------------------------------
d --2-4-2-4-2-4-2-4-2----4-5-4-5-4-5-4-5-4-----2-4-2-4-2-4-2-4-2---4-5-4-5-4-5--4h(5)-4-2---
a ------------------------------------------------------------------------------------------
e ------------------------------------------------------------------------------------------

       G        D                              A
e ------------------------------------------------
b ------------------------------------------------
g ------------------------------------------------
d -2-4-0--0-0--4h(5)-4-2--------------------------
a -----------------------5-(5)---4h(5)p(4)-4------
e -------------------------------------------7-5--


A             G       D
 Vi pasar la soledad por mi calle

e -----------------
b -----------------
g -----------------
d -----------------
a -4h(5)p(4)-4-----
e -------------7-5-


A              G        D
 vi cruzar su multitud sin mirarme

e ----------------
b ----------------
g ----------------
d -4h(5)-4--2-4---
a ----------------
e ----------------


Bm           A         G        A               A-A7-A-A7
 claramente pude ver que no había tristeza ahí

Bm             A        G      A
 tampoco escuché reír, sólo vivía y se dejaba vivir.


    Dsus2-D              G                        A
e ---------------------------------------------------
b ---------------------------------------------------
g ---------------------------------------------------
d --2-4-2-4-2-4-2-4-2----4-5-4-5-4-5--4h(5)p(4)-4-2--
a ---------------------------------------------------
e ---------------------------------------------------


A                G         D
 Vi también la suavidad de un romance

e -----------------
b -----------------
g -----------------
d -----------------
a -4h(5)p(4)-4-----
e -------------7-5-

A           G               D
 dulcemente en su especie prolongarse

e ----------------
b ----------------
g ----------------
d -4h(5)-4--2-4---
a ----------------
e ----------------

Bm           A           G         A                 A-A7-A-A7
 quise mis ojos cerrar y a mis sueños echar a andar

Bm            A         G         A
 sólo dar un paso atrás y seguir con mi viaje.

      G           Bm              G           Bm   A
ahhhh ahhh...ahhh ahhhh ahh..ahhh ahhh...ahhh ahhhhhhhh

    D        F#m          A
aah ahhhhhhh ahh ...ahhhh ahhhhh

    D        F#m          A
aah ahhhhhhh ahh ...ahhhh ahhhhh

       G            F#m          A        G-Bm-G-Bm
En mi máquina del tiempo sin hallar claridad.


Dsus2-D (x4)   Dsus2

D-Dsus4 (x4)   D

Dsus2-D (x4)   Dsus2

D-Dsus4 (x4)   D


           A           G          D                               A
e ---------------------------------------------------------------------
b ---------------------------------------------------------------------
g ---------------------------------------------------------------------
d -4h(5)-4-2-(2)---2-4-0--0-0--4h(5)-4-2-------------------------------
a ----------------------------------------5-(5)---4h(5)p(4)-4----------
e --------------------------------------------------------------7-5----


A             G           D
 Vi pasar mi vida así, en un instante

e -----------------
b -----------------
g -----------------
d -----------------
a -4h(5)p(4)-4-----
e -------------7-5-

A             G           D
 a quien amé pude odiar, sin importarme

e ----------------
b ----------------
g ----------------
d -4h(5)-4--2-4---
a ----------------
e ----------------

Bm            A            G         A             A-A7-A-A7
 simplemente comprendí que es mejor callado vivir

Bm             A         G         A
 y seguir mi viaje así, sin pensar en hallar tu gran claridad.

      G           Bm              G           Bm   A
ahhhh ahhh...ahhh ahhhh ahh..ahhh ahhh...ahhh ahhhhhhhh

    D        F#m          A
aah ahhhhhhh ahh ...ahhhh ahhhhh

    D        F#m          A
aah ahhhhhhh ahh ...ahhhh ahhhhh

       G            F#m         A
En mi máquina del tiempo sin parar,


    D        F#m          A
aah ahhhhhhh ahh ...ahhhh ahhhhh

    D        F#m          A
aah ahhhhhhh ahh ...ahhhh ahhhhh


       G            F#m          A           D-G-Bm-A        D-G      F#m-G-A7
en mi máquina del tiempo sin hallar... claridad...     claridad...                    ...Fin


Comentarios,peticiones,interes en formar bandas, etc...(lima)...bracho_rhcp@
Suggest correction
Give kudos to tab author, rate the tab!
1 2 3 4 5
comments
print report bad tab
guest
You may want to rate the tab now too:
select rating
Wanna post a correction for this tab? Suggest correction