Oops, an error
Loading. Please wait.

Llévame Tab

40 views 1 this week
no commentswrite comment
1 2 3 4 5
3 more votes to show rating
add to favorites
launch autoscroll
font size
0
reset
how to read this tab
guitar tuner
Autoscroll
slow
fast
+/-
esc
set tempo
stop
Help us to improve Ultimate-Guitar.com Take our survey!
×
Intro:  F#m (x4) F#m D A Bm E (x2) A E A C#

horas de mar y de sol   (Fm#, D, A)
un adiós, un recuerdo  (Bm, E)
un equipaje, un dolor
el sabor de tus besos
que partió? (A, E, A, C#)

nunca me perteneció
ni una risa, ni un verso
una mentira vio luz
todo le pertenezco
y partió?

quiero más que una luz apagada    (Bm, E, Cm#, Fm#)
creo más tu mirada que tu voz    (D, E, A, F#)
quiero más que el sabor del recuerdo  (Bm, E, Cm#, Fm#)
de tu amor (D, E?)

llévame    (F#m)
viento hacia el sol    (D, A)
a un camino ya sin puerto   (Bm, E)
déjame     (F#m)
en tierra sin dios     (D, A)
que no encuentre ni un recuerdo    (Bm, E)
llévame   (F#m, D)
para siempre llévame (E)

F#m.. (x2)  D, A, C#, F#m, D, A, C#....

e ---------------------------------------------------------
b -3---3-2--------2------2-2-(2)-3-3-6-2--2h(3)p(2)p(0)h(2)
g ---2-----2-(2)-1-4-2-4----------2------------------------

F#m   (x2)

F#m      D        A           Bm            E
de nada sirve tu voz...tus palabras ya se queman
F#m         D          A              Bm          E
no hay esperanza en vivir...no hay futuro en el credo
        A  E         A  C#
de tu amor...de tu amor


quiero más que una luz apagada    (Bm, E, Cm#, Fm#)
creo más tu mirada que tu voz    (D, E, A, F#)
quiero más que el sabor del recuerdo  (Bm, E, Cm#, Fm#)
de tu amor (D, E?)

 F#m       D           A              Bm           E
llévame...viento hacia el sol a un camino ya sin puerto
 F#m         D       A                 Bm              E
déjame...en tierra sin dios que no encuentre ni un recuerdo
 F#m        D       A          Bm          E
llévame...quiero escapar...alejarme de su risa
 F#m      D             A            Bm         E
déjame...lejos no hay prisa...si ya no te pertenezco
 F#m    D   A    E
llévame...llévame
 F#m    D        E            F#m (x4)
llévame...para siempre llévame

F#5

e ----------------------------------------------------------
B ----------------------------------------10-9-10-(10) -10-9
G -------2-1-2-(2)-2-1------2-1-2-(2)-s-11------------------
D -4-(4) --------------4-(4) ------------------------------


e --------------------------------
B ---------------10-9-10-(10)-----
G -------11-(11)------------------
D --------------------------------

   D5               C#5     (C#5-D5-C#5-B5-A5)  F#5

e --------------------------------------------------------
B -9--10-(10)--10-s-(12)----------(12)-----------10---(10)
G --------------------------------------------------------
D --------------------------------------------------------
Suggest correction
Give kudos to tab author, rate the tab!
1 2 3 4 5
comments
print report bad tab
guest
You may want to rate the tab now too:
select rating
Wanna post a correction for this tab? Suggest correction