Oops, an error
Loading. Please wait.

Llévame Chords

version 2
version 2

Whole song

43 views 1 this week
no commentswrite comment
1 2 3 4 5
3 more votes to show rating
add to favorites
launch autoscroll
font size
0
reset
transpose
0
reset
simplify chords
display chords
guitar tuner
Autoscroll
slow
fast
+/-
esc
set tempo
stop
Help us to improve Ultimate-Guitar.com Take our survey!
×
Intro:

F#m (x4)

F#m-D-A-Bm-E  (x2)

A-E-A-C#


F#m       D        A          Bm         E
Horas de mar y de sol ...un adiós, un recuerdo

F#m     D          A           Bm         E
un equipaje, un dolor ...el sabor de tus besos

        A  E         A   C#
que partió...que partió

F#m       D       A         Bm          E
nunca me perteneció ni una risa, ni un verso

F#m     D        A          Bm      E
una mentira vio luz...todo le pertenezco

      A  E       A   C#
y partió...y partió


PRE CORO :

Bm       E           A      C#m         D        E           A   F#7    (F#7-Bm)
 Quiero más que una luz apagada...creo más tu mirada que tu voz

Bm       E            A          C#m
 quiero más que el sabor del recuerdo

         D            E
 de tu amor...de tu amor

CORO :

  F#m      D           A                Bm          E
llévame...viento hacia el sol...a un camino ya sin puerto

 F#m         D       A                   Bm              E
déjame...en tierra sin dios...que no encuentre ni un recuerdo

  F#m   D        E           F#m (x2)
llévame...para siempre llévame


SOLO 1:   D-A-C#-C#  (x2)

e -------------------------------------------------------------------
b -3----3-2----------2-------2-2-(2)--3----3-6-2--2h(3)p(2)p(0)h(2)--
g ---2------2-(2)--1---4-2-4------------2----------------------------
d -------------------------------------------------------------------
a -------------------------------------------------------------------
e -------------------------------------------------------------------


F#m (x2)


F#m      D        A           Bm            E
de nada sirve tu voz...tus palabras ya se queman

F#m         D          A              Bm          E
no hay esperanza en vivir...no hay futuro en el credo

        A  E         A  C#
de tu amor...de tu amor


PRE CORO :

Bm       E           A      C#m         D        E           A   F#7    (F#7-Bm)
 Quiero más que una luz apagada...creo más tu mirada que tu voz

Bm       E            A          C#m
 quiero más que el sabor del recuerdo

         D            E
 de tu amor...de tu amor

CORO :

 F#m       D           A              Bm           E
llévame...viento hacia el sol a un camino ya sin puerto

 F#m         D       A                 Bm              E
déjame...en tierra sin dios que no encuentre ni un recuerdo

 F#m        D       A          Bm          E
llévame...quiero escapar...alejarme de su risa

 F#m      D             A            Bm         E
déjame...lejos no hay prisa...si ya no te pertenezco

 F#m    D   A    E
llévame...llévame

 F#m    D        E            F#m (x4)
llévame...para siempre llévame


SOLO 2:

    F#5

e --------------------------------------------------------------------------------------------
b --------------------------------------------------10-9-10-(10)--10-9---------10-9-10-(10)---
g ----------2-1-2-(2)--2-1----------2-1-2-(2)-s-11---------------------11-(11)----------------
d ---4--(4)-----------------4--(4)------------------------------------------------------------
a --------------------------------------------------------------------------------------------
e --------------------------------------------------------------------------------------------

   D5               C#5     (C#5-D5-C#5-B5-A5)  F#5

e -----------------------------------------------------------
b -9--10-(10)--10-s-(12)----------(12)-----------10---(10)---
g -----------------------------------------------------------
d -----------------------------------------------------------
a -----------------------------------------------------------
e -----------------------------------------------------------


Comentarios,peticiones,interes en formar bandas,etc...(lima)...bracho_rhcp@
Suggest correction
Give kudos to tab author, rate the tab!
1 2 3 4 5
comments
print report bad tab
guest
You may want to rate the tab now too:
select rating
Wanna post a correction for this tab? Suggest correction