Oops, an error
Loading. Please wait.

Otra Canción Bass

12 views 1 this week
no commentswrite comment
1 2 3 4 5
3 more votes to show rating
add to favorites
launch autoscroll
font size
0
reset
guitar tuner
Autoscroll
slow
fast
+/-
esc
set tempo
stop
solo ponganle mucho feeling y nada mas
y q viva el rock peruano carajo

intro:

g ------------------------------------------
d ------------------------------------------
a ---3-3-(3)---0-0-(0)----------------------
e ----------------------1-1-(1)---3-3-(3)---  (x2)

I estrofa:

    son mil...          y mis confeiones.
g ------------------------------------------
d ------------------------------------------
a ---3-3-(3)---0-0-(0)----------------------
e ----------------------1-1-(1)---3-3-(3)---

   se pasan...          sin explicaciones.
g ------------------------------------------
d ------------------------------------------
a ---3-3-(3)---0-0-(0)----------------------
e ----------------------1-1-(1)---3-3-(3)---

   la estaba...        no se si volvio.
g ------------------------------------------
d ------------------------------------------
a -----------0-0-(0)----------0-0-(0)-------
e --0-0-(0)-----------0-0-(0)---------------

  y un angel...       me durmio...
g ------------------------------------------
d ------------------------------------------
a -----------0-0-(0)------------------------
e --0-0-(0)------------3-3-(3)--------------


coro:

   sombras nada mas...  q viene y va.
g ------------------------------------------
d ------------------------------------------
a ---3-3-(3)---0-0-(0)----------------------
e ----------------------1-1-(1)---3-3-(3)---

   huellas de otro...   cantando va.
g ------------------------------------------
d ------------------------------------------
a ---3-3-(3)---0-0-(0)----------------------
e ----------------------1-1-(1)---3-3-(3)---

II estrofa:

    la noche se aclara... y no hay solucion.
g ------------------------------------------
d ------------------------------------------
a ---3-3-(3)---0-0-(0)----------------------
e ----------------------1-1-(1)---3-3-(3)---

   y aun tengo ...       en dos el corazon.
g ------------------------------------------
d ------------------------------------------
a ---3-3-(3)---0-0-(0)----------------------
e ----------------------1-1-(1)---3-3-(3)---

   te quiero...     mil veces tambien.
g ------------------------------------------
d ------------------------------------------
a -----------0-0-(0)----------0-0-(0)-------
e --0-0-(0)-----------0-0-(0)---------------

    te entrego...     ya me voy.
g ------------------------------------------
d ------------------------------------------
a -----------0-0-(0)------------------------
e --0-0-(0)------------3-3-(3)--------------


coro:

   sombras nada mas...  q viene y va.
g ------------------------------------------
d ------------------------------------------
a ---3-3-(3)---0-0-(0)----------------------
e ----------------------1-1-(1)---3-3-(3)---

   huellas de otro...   cantando va.
g ------------------------------------------
d ------------------------------------------
a ---3-3-(3)---0-0-(0)----------------------
e ----------------------1-1-(1)---3-3-(3)---

   nananananana...    nanananana
g ------------------------------------------
d ------------------------------------------
a -----------0-0-(0)----------0-0-(0)-------
e --0-0-(0)-----------0-0-(0)---------------

  nanananana...   nanana
g ------------------------------------------
d ------------------------------------------
a -----------0-0-(0)------------------------
e --0-0-(0)------------3-3-(3)--------------

(intro)


un saludo pa gente de los galacticos y a la gente de la capilla
la paz y a los cenizas joel,pedro(pulpo),george(slash).
cualquier sugerencia escriban a george_1006@
Suggest correction
Give kudos to tab author, rate the tab!
1 2 3 4 5
comments
print report bad tab
guest
Wanna post a correction for this tab? Suggest correction