Oops, an error
Loading. Please wait.

Otra Canción Tab

version 3
version 3

Whole song

13 views 3 this week
no commentswrite comment
1 2 3 4 5
3 more votes to show rating
add to favorites
launch autoscroll
font size
0
reset
how to read this tab
guitar tuner
×
Best way to learn
"Otra Canción"
Autoscroll
slow
fast
+/-
esc
set tempo
stop
TRANSCRITO POR: Jimy Peralte Oviedo  feni_x9x@
FECHA: 23/06/2009
PROCEDENCIA: HUANCAYO - PERU
NOTA: ESTA ES UNA CORRECION DE LA OTRA TRANSCRIPCION YA AY
SOLO EL INTR ESTAVA MAL Y LE AGRE LOS ARPEGIOS
PARA: MI PRINERA CUENTA
***********************************************************
El intr. Esta bien simple solo denle le ritmo con el piano que se escucha.
Intro:
       C         Am        F          G/G7
e||---------|---------|----------|---------|
b||---------|---------|----------|---------|
g||---0-----|---0-----|---0------|---------|
D||-----3-2-|-----3-2-|------3-2-|-------0-|
A||-3-------|-0-------|----------|-----3---|
E||---------|---------|-1--------|-3-3-----|     x2
Los arpegios son para cada nota.

Arpegios:
    C
e||-----0-------0--|
b||---------1----1-|
g||---0---0---0----|
D||----------------|
A||-3--------------|
E||----------------|
  Am
e||-----0-------0--|
b||---------1----1-|
g||---2---2---2----|
D||----------------|
A||-0--------------|
E||----------------|
  F                      en ocasiones se toca esto en F
e||-----1-------1--|   e||-1---1------1----|
b||---------1----1-|   b||-1-------1----1--|
g||---2---2---2----|   g||-2-----2---2-----|
D||----------------|   D||-3---------------|
A||----------------|   A||-3---------------|
E||-1--------------|   E||-1---------------|
   G/G7
e||-----3-------1--|
b||---------0----0-|
g||---0---0---0----|
D||----------------|
A||----------------|
E||-3--------------|
   E
e||-----0-------0--|
b||---------0----0-|
g||---1---1---1----|
D||----------------|
A||----------------|
E||-0--------------|

A en los acordes de G/G7 eso significa camviar De G a G/G7 en pleno rasgue.
Acorde:
  C              Am
   Son mil emociones
  F                 G/G7
   Y mil confusiones
  C              Am
   Se pasan los días
  F                 G/G7
   Sin explicaciones.

  E                  Am
   La estaba esperando
  E               Am
   No se si volvió
  E                    Am
   Y un ángel del cielo
  G7
   Me durmió.

  C               Am          F
  Sombras nada más de un amor
                G/G7
  Que viene y va
  C                  Am
  Huellas de otro amor
             F            G/G7
  Que al morir cantando va.

  C                Am
  La noche se aclara
  F                G/G7
  Y no hay solución
  C                  Am
  Y aún tengo partido
  F                G/G7
  En dos el corazón.


  E                  Am
  Te quiero mil veces
  E                Am
  Mil veces también
  E                       Am
  Te entrego hoy mis sueños
  G7
  Ya me voy...

  C               Am          F
  Sombras nada más de un amor
                G/G7
  Que viene y va
  C                  Am
  Huellas de otro amor
             F            G/G7
  Que al morir cantando va...

  E       Am       E     Am
  Narara narara    Narara narara
  E     Am         G7
  Narara narara    nararaa...

  C                Am
  Hay Mil estrellas guiando esta noche
  C             Am
  La luna llena descansa sobre en mar
  C                   Am
  La noche es clara la noche esta contenta
  C                             Am F
  Hay mil maneras de soñar y soñar

  F                    G                       F
  Estoy contento vida, estoy jugando con el mar
  F                    G                       F
  Estoy contento vida, estoy jugando con el mar
  F                    G                       F
  Estoy contento vida, estoy jugando con el mar
  F                    G                      G7    C
  Estoy contento vida, estoy jugando con el maaaaaaarrr
  C        Am        F                    G/G7
                     Y no hay solución.
e||-|-|-|-|-|-|-|
b||-|-|-|-|-|-|-|
g||-|-|-|-|-|-|-|
D||-|-|-|-|-|-|-|
A||-|-|-|-|-|-|-|
E||-|-|-|-|-|-|-|

BUENO ESO ES TODO LA CANCION NO ES MUY DIFICIL ESPECIALMENTE
 SI LE ECHAN GANAS.Y SOLO ES PARA TI MERVI
Suggest correction
Give kudos to tab author, rate the tab!
1 2 3 4 5
comments
print report bad tab
guest
You may want to rate the tab now too:
select rating
Wanna post a correction for this tab? Suggest correction