Oops, an error
Loading. Please wait.

Pais De Tus Sueños Tab

50 views 6 this week
no commentswrite comment
1 2 3 4 5
3 more votes to show rating
add to favorites
launch autoscroll
font size
0
reset
how to read this tab
guitar tuner
×
Best way to learn
"Pais De Tus Sueños"
Autoscroll
slow
fast
+/-
esc
set tempo
stop
Version mejorada de la anterior.


Versión del cd en vivo

Intro :


Am ; Em

Am ; Em / B7             ...tocar tres veces      

 
 e -----------------------------------------------------
 b ------------------------------------------------9sf--
 g ------------------------------------------------9sf--
 d -9s(14)-14--14---12-10-9-(9)s14-------12-10-9--------
 a -----------------------------------------------------
 e -----------------------------------------------------


Riff 1:

    Em                  B7

e ----------------------------------------------
b ----------------------------------------------
g --9-9-9--9-9-9--------------------------------   (x2)
d --9-9-9--9-9-9--------------------------------
a --7-7-7--7-7-7---2-0---2-0---2-0---2-0--------
e ---------------------2-----2-----2-----2-0----

Estrofas A : Con riff 1 o con los acordes


Em                    B7                      Em
Cae la lluvia y el pesar de sus hombros al andar

                         B7
no cae en cuenta de si avanza o va

                 Em                       B7
a cada paso que da  si es la lluvia poco da

                    Em                     B7
o una lagrima al pasar derramando bella estampa de trizteza y soledad

     aaaaaaaaaaaaaaaaaaaaaaaaaaaad  uooooooh   ooooooooooooooh

e -2s(3)3s(5)5s(7)7s(8)8s(10)-10s8-7h8-7-5h7p5-3-3-3h5-3-2h3p2-2-0---
b -------------------------------------------------------------------  (solo 1)
g -------------------------------------------------------------------
d -------------------------------------------------------------------
a -------------------------------------------------------------------
e -------------------------------------------------------------------

G               D
oye principe en pena

      C             D            G
dime cuanto por sufrir es tu condena 

       D           Em         C                G
tu fantasma es el dolor, de mi propio corazoooon 

         D          Em           C          G
No ha dejado de llorar.... cabizbajo!! miramé 

      D              Em
y con el nocturno andar

        C            G           G
de tus labios hablame,....... Hablamé 

      G                              G  
es siempre recordaaaar.... que estuve labio a labio

        G                    C                  D
con su labio a labio estuve labio a labio respirandole muy cerca  

 C                G 
[ch]Abio A LAbio y piel A[/ch] piel con su querer.....  (G5 x8 rapido)


 Am            B             Em 
   Y no puedo mas de esta condena 

e -0-0--10-9-8-0-
b ---------------
g ---------------
d ---------------
a ---------------
e ---------------


Am            G                  F#         D             G                                      
  y no puedo mas que el dia en que robaron la vida y se fue
 
           D     Em           C        G
y mire al sol....  no pude en nada pensar 

       D     Em           C          G
y un amor....   fue prohibido de buscaaaaaaaar....

         D                G   D    Em
mira en que te han convertidoooooooo....

       C           G    D    Em
en recuerdos nada maaaaaaaaass.... 

         C           G    D    Em
te expulsaron del caminoooooooo...

      C               G   Am      B 
y ya no te encuentro maaaaaaass... 

       Am         Em          Am          D 
rompieron tu corazón del que nunca sere dueño y siempre solo espero...

                        G       D      Em     C      G 
en el pais de tu sueños......oooh oooh ooh oh oh oh oh !!  

G5  D5  E5  C5


Solo 2:

e ------------------5-7-7-7-8-10--12-12-12--14-15--15-15-15-14-12h14-12--12h14-12--------------
b-3-3-3-5-7-7-7-7-8--------------------------------------------------------------15-14-12-15s0-
g ---------------------------------------------------------------------------------------------
d ---------------------------------------------------------------------------------------------
a ---------------------------------------------------------------------------------------------
e ---------------------------------------------------------------------------------------------
 

Comentarios,peticiones,interes en formar bandas...bracho_rhcp@
Suggest correction
Give kudos to tab author, rate the tab!
1 2 3 4 5
comments
print report bad tab
guest
You may want to rate the tab now too:
select rating
Wanna post a correction for this tab? Suggest correction