Oops, an error
Loading. Please wait.

Prendí Otro Fuego Por Ella Tab

version 1
version 1

Whole song

35 views 1 this week
no commentswrite comment
1 2 3 4 5
3 more votes to show rating
add to favorites
launch autoscroll
font size
0
reset
how to read this tab
guitar tuner
×
Best way to learn
"Prendí Otro Fuego Por Ella"
Autoscroll
slow
fast
+/-
esc
set tempo
stop
Este es el Solo de la cancion de MDC (prendi otro fuego), tal ves hay algunos 
partes que omiti por ahi pero la mayoria esta bien espero que lo puedan sacar

e -----------------------------------------
B --2---------------------------------2-2--
G ----2-2-2-2-2s3-2-2-2-2-----2-2-4s6------
D ------------------------4-2--------------
A -----------------------------------------
E -----------------------------------------

e -----------------------------------------
B -2-2-2h3-3-3-3---------------------------
G ---------------4-2-------2-2-6-6-4-2-----
D -------------------2-2h4-----------------
A -----------------------------------------
E -----------------------------------------


Si tienes alguna duda no duden en escribirme ...
Suggest correction
Give kudos to tab author, rate the tab!
1 2 3 4 5
comments
print report bad tab
guest
You may want to rate the tab now too:
select rating
Wanna post a correction for this tab? Suggest correction