Oops, an error
Loading. Please wait.

Si Algo Así Como El Amor Está En El Aire Tab

version 1
version 1

Whole song

7 views 1 this week
no commentswrite comment
1 2 3 4 5
3 more votes to show rating
add to favorites
launch autoscroll
font size
0
reset
how to read this tab
guitar tuner
Autoscroll
slow
fast
+/-
esc
set tempo
stop
Help us to improve Ultimate-Guitar.com Take our survey!
×
INTRO :

e -----------------------------------------------------------------------------------------
b -5-3-2-3-2-0-2-0------------3-2-----2-3-5-3-2-3-2--0-2-(2)-----3-2---------0h2p0---------
g -----------------2-(2)--2-4-----2-4------------------------2-4-----2-4-(4)-------2-(2)---
d -----------------------------------------------------------------------------------------
a -----------------------------------------------------------------------------------------
e -----------------------------------------------------------------------------------------
                             E5
                              Como es la vida como...
e ------------------------------------------------
b ------3-2---------------------------------------
g --2-4-----2-4-(4)----------------(4)------------
d ------------------------------------------------
a ------------------------------------------------
e ------------------------------------------------


A5        D5            E5           F#5          D5      E5       A5
 es te encuentras destruido pues de nada te ha valido la vida como es

E5                     A5      D5          E5     F#5         D5        E5        A5
 luego el futuro te dejo...el mundo te gritaba...ya no vales nada el futuro te dejo


(tocar con palm mutting)

E5                F#5 E5               F#5 D5                 E5                     (C#5-F#5-A5)
 un joya.... como tu... un regalo como tu... y tiene nada que ver... por eso la realidad

E5                    F#5  E5                F#5  D5              E5
 tiene quien sabe querer... a mis brazos entrego...no seria demasiado...y que bien se esta

 F#5        (E5-D5-A5)
 a su ladooo oh oh


e --------------------0-----
b -5-3-2-0-2-3-2-(2)--2-----
g --------------------2-----
d --------------------2-----
a --------------------------
e --------------------------

                    B5     E5           A5                         A                  D5
 cuanto dura ser feliz?...son segundos nada mas lo demas es caminar por una vida sin ley

B5                E5                                        F#5    (E5-D5-A5)
 y agarrarlo al vuelo...si algo asi como el amor esta en el aireeee eh eh


e -----------------------------------------------------------------------------------------
b -5-3-2-3-2-0-2-0------------3-2-----2-3-5-3-2-3-2--0-2-(2)-----3-2---------0h2p0---------
g -----------------2-(2)--2-4-----2-4------------------------2-4-----2-4-(4)-------2-(2)---
d -----------------------------------------------------------------------------------------
a -----------------------------------------------------------------------------------------
e -----------------------------------------------------------------------------------------
                                 E5
                                   Y todo tiene su...
e ------------------------------------------------
b ------3-2---------------------------------------
g --2-4-----2-4-(4)----------------(4)------------
d ------------------------------------------------
a ------------------------------------------------
e ------------------------------------------------


    A5  D5             E5       F#5                  D5    E5              A5     E5
 final...y yo te debo mi adios...es solo un gesto de amor...solo persignos y mas...y en que

             A5     D5               E5     F#5                D5  E5                  A5
 momento escribi ?...una carta del adios...solo quiero un dia más...o quizas que sean dos


(tocar con palm mutting)

E5                        F#5  E5                     F#5   D5                E5
 Después de un sueño tan largo...como la cumbre de un sueño...un sueño de los mas bellos...

                    (C#5-F#5-A5)
 cada quien en su lugar

E5                    F#5  E5                    F#5  D5              E5
 tu risa es la mejor risa...tu boca es la mejor boca...tu beso es el mejor beso...olvido

             F#5  (E5-D5-A5)
 y quedo dormidooo oh oh


e --------------------0-----
b -5-3-2-0-2-3-2-(2)--2-----
g --------------------2-----
d --------------------2-----
a --------------------------
e --------------------------

                         B5   E5                      A5                           A
 A quien le importa una ley... a quien le importa un buen Dios...nunca supe merecer las cosas que
      D5 B5                 E5                                         F#5 F#               B5
 regalo...como un consuelo fugaz...si algo asi como el amor esta en el aire...con una mano me

      E5                     A5                       A                     D5   B5
 dio...con la otra me lo quito...siempre no pude saber que tienes que devolver... y no devuelvo

  E5                                           F#5  E5
 sin mas...si algo asi como el amor esta en el aire...si algo asi como el amor esta en el

 F#5   (E5-D5-A5)
 aireee eh eh


e -----------------------------------------------------------------------------------------
b -5-3-2-3-2-0-2-0------------3-2-----2-3-5-3-2-3-2--0-2-(2)-----3-2---------0h2p0---------
g -----------------2-(2)--2-4-----2-4------------------------2-4-----2-4-(4)-------2-(2)---
d -----------------------------------------------------------------------------------------
a -----------------------------------------------------------------------------------------
e -----------------------------------------------------------------------------------------


e ----------------------------------------------------------------
b ------3-2-------------------------------------------------------
g --2-4-----2-4-(4)----------------(4)----------------------------
d -----------------------------------------------------7-/---\-x--
a -----------------------------------------------------7-/---\-x--
e -----------------------------------------------------5-/---\-x--


cometarios,peticiones,interes en formar bandas,etc..(lima)...bracho_rhcp@
Suggest correction
Give kudos to tab author, rate the tab!
1 2 3 4 5
comments
print report bad tab
guest
You may want to rate the tab now too:
select rating
Wanna post a correction for this tab? Suggest correction