Oops, an error
Loading. Please wait.

Si Algo Así Como El Amor Está En El Aire Tab

version 2
version 2

Whole song

22 views 1 this week
no commentswrite comment
1 2 3 4 5
3 more votes to show rating
add to favorites
launch autoscroll
font size
0
reset
how to read this tab
guitar tuner
Autoscroll
slow
fast
+/-
esc
set tempo
stop
Por si acaso este es un acorde q yo desconosco,por eso lo aclaro
porq se utiliza en esta cancion

A1

E----3------
B---2-------
G---2-------
D---2-------
A-----------
E-----------

//Intro

A E F#m D E (bis)
F#m D E

//Punteo de intro:

E--0----------------------------------------------------
B----3-2--3-2-0--2-0-----------3-2---0-2-3--------------
G---------------------2----2-2------2-------------------
D-------------------------------------------------------
A-------------------------------------------------------
E-------------------------------------------------------

E--0----------------------------------------------------
B----3-2--3-2-0-2------3-2---0--2-0----------3-2---0----
G------------------2-2-----2--------2----2-2-----2------
D-------------------------------------------------------
A-------------------------------------------------------
E-------------------------------------------------------

                       A        
   cómo es la vida, cómo es
         D             E      
   te encuentras destruido
      F#m          D          E            A                
   de nada te ha valido la vida como es
  E                     A      
   luego el futuro te negó
       D         E            
   el mundo te gritaba:
       F#m          D       
   'tu ya no vales nada'
         E         A          
   el futuro te negó


  E               F#m E                 F#m
   una joya como tú...un regalo como tú
  D                 E      
   ¿qué tiene nada que ver
                 F#m        
   con esto la realidad?
  E                     F#m       
   dime ¿quién sabe querer?
  E             F#m         
   a mis brazos se entregó
  D             E
   ¿no sería demasiado?
                     F#m        E
   y que bien se está a su lado


A E F#m F#

E--0------------------6--
B----3-2----0-2-3-2------
G------------------------
D------------------------
A------------------------
E------------------------


                   Bm         
   ¿cuánto dura ser feliz? 
  E               A      
   son segundos nada más
  E              A      A1
   lo demás es caminar
                 D            
   por una vida sin ley
 Bm                E
   y agarrarlo al vuelo hoy
                               F#m    E
   si algo así como el amor está en el aire   Ehhhh!!!


A E F#m D E (bis)
F#m D E

//Punteo de intro


                  A      
   y todo tiene su final
  D               E      
   y yo te debo un adiós
 F#m                     D                       
   es solo un gesto de amor
  E              A      
   saber decirlo sin más
  E                  A        
   ¿en qué momento escribir
  D                  E            
   una carta del adiós?
 F#m                   D       
   solo quiero un día más
  E               A         
   (o quizás que sean dos)


  E                      F#m      
   después de un sueño tan largo
  E                   F#m                 
   como la cura de un sueño
  D                E
   un sueño de los mas bellos
                  F#m                     
   cada quien a su lugar...
  E                    F#m          
   tu risa es la mejor risa
  E                    F#m          
   tu boca es la mejor boca
  D                E
   tu beso es el mejor beso
                    F#m    E            
   tu olvido el peor olvido


A E F#m F#

E--0------------------6--
B----3-2----0-2-3-2------
G------------------------
D------------------------
A------------------------
E------------------------

                   Bm
   ¿a quién le importa una ley?
  E                         A
   ¿a quién le importa un buen dios?
  E            A      A1
   nunca supe merecer
                     D      
   las cosas que regaló
 Bm                 E      
   como un consuelo fugaz
                               F#m      
   si algo así como el amor está en el aire


 F#                Bm
   con una mano me dió,
  E                  A
   con la otra me lo quitó
  E                  A          A1      
   siempre lo pude saber:
                  D
   'lo tienes que devolver'
  Bm               E       
   ¡y lo devuelvo sin más!
                               F#m      
   si algo así como el amor está en el aire
  E                               F#m   E      
   si algo así como el amor está en el aire ehhhh!!!


A E F#m D E (bis)
F#m D E   A

//Punteo de intro
Suggest correction
Give kudos to tab author, rate the tab!
1 2 3 4 5
comments
print report bad tab
guest
Wanna post a correction for this tab? Suggest correction