Oops, an error
Loading. Please wait.

Si Algo Así Como El Amor Está En El Aire Tab

version 3
version 3

Whole song

34 views 1 this week
no commentswrite comment
1 2 3 4 5
3 more votes to show rating
add to favorites
launch autoscroll
font size
0
reset
how to read this tab
guitar tuner
Autoscroll
slow
fast
+/-
esc
set tempo
stop
Bueno esta ya es mi segunda trascripción y bueno esta vez
es de mar de copas, vi los otros tabs y no estan tan bien que digamos
para k el sonido salga = lo hice asi:

E-|------------------------------------------------------------------||
B-|------------------------------------------------------------------||
G-|-9-7-6-7-6-4-6-4------------7-6-----6-7-9-7-6-7-6-4-6------7-6----||
D-|-----------------7------7-9-----7-9--------------------7-9-----7-9||
A-|------------------------------------------------------------------||
E-|------------------------------------------------------------------||

E-|------------------------------------------------------------------||
B-|------------------------------------------------------------------||
G-|-642----------7-6-------------------------------------------------||
D-|----------7-9-----7-9---------------------------------------------||
A-|------------------------------------------------------------------||
E-|------------------------------------------------------------------||


E5                   A5        D5           E5      F#5          D5
Como es la vida como es, te encuentras destruido k nada te ha valido

    E5       A5
la vida como es

E5                  A5       D5         E5       F#5       D5
luego el futuro te nego, el mundo te gritaba k ya no vales nada

      E5       A5
el futuro te nego


(Aca la hacen con muting luego sueltan (en F#5) )


E5            F#5 E5             F#5
una joya como tu, un regalo como tu

D5              E5                   (C#5-F#5-A5)
k tiene nada k ver, con eso la realidad

E5               F#5  E5                  F#5
dime kien sabe kerer, a mis brazos se entrego

D5             E5                    F#5     (E5-D5-A5)
no seria demaciado y k bien se esta a su lado o oh oh

E-|------------------------||
B-|------------------------||
G-|-9-7-6--4-6-7-6--4------||
D-|------------------------||
A-|------------------------||
E-|------------------------||


                  B5    E5           A5
cuanto dura ser feliz, son segundos nada mas, lo demas es caminar

A5                D5  B5               E5
por una vida sin ley, y agarrando al vuelo, si algo asi como el amor

            F#5 (E5-D5-A5)
esta en el aire  e he he


E-|------------------------------------------------------------------||
B-|------------------------------------------------------------------||
G-|-9-7-6-7-6-4-6-4------------7-6-----6-7-9-7-6-7-6-4-6------7-6----||
D-|-----------------7------7-9-----7-9--------------------7-9-----7-9||
A-|------------------------------------------------------------------||
E-|------------------------------------------------------------------||

E-|------------------------------------------------------------------||
B-|------------------------------------------------------------------||
G-|-642----------7-6-------------------------------------------------||
D-|----------7-9-----7-9---------------------------------------------||
A-|------------------------------------------------------------------||
E-|------------------------------------------------------------------||
E5                A5   D5             E5    F#5                  D5
Y todo tiene su final, yo le debo mi adios, es solo un gesto de amor

E5                A5   E5                 A5   D5              E5
solo persignos y mas, y en k momento escribir una carta del adios

F#5               D5   E5             A5
solo kiero un dia mas o kisas k sean dos


(Aca la hacen con muting luego sueltan (en F#5) )


E5                       F#5   E5                   F#5
después de un sueño tan largo, como la cura de un sueño

D5                  E5                          (C#5-F#5-A5)
tu sueño es de los mas bellos, cada kien a su lugar

E5                  F#5   E5                   F#5  D5             E5
tu risa es la mejor risa, tu boca es la mejor boca, tu beso es el mejor

                        F#5 (E5-D5-A5)
beso, por ti yo kedo dormido o oh oh


E-|------------------------||
B-|------------------------||
G-|-9-7-6--4-6-7-6--4------||
D-|------------------------||
A-|------------------------||
E-|------------------------||


                       B5  E5                    A5
A kien le importa una ley, a kien le importa un buen dios

                 A5                D5  B5                 E5
nunca supe merecer las cosas k regalo, como un consuelo fugaz


E5                                   F#5
si algo  asi como el amor esta en el aire

F#5             B5  E5                 A5
con una mano me dio con la otra me lo kito

                A5                      D5    B5
siempre lo pude saber, lo tienes k devolver, y no devuelvo sin mas

E5                                  F#5      E5
si algo asi como el amor esta en el aire, si algo asi como el amor


           F#5 (E5-D5-A5)
esta en el aire e he he


E-|------------------------------------------------------------------||
B-|------------------------------------------------------------------||
G-|-9-7-6-7-6-4-6-4------------7-6-----6-7-9-7-6-7-6-4-6------7-6----||
D-|-----------------7------7-9-----7-9--------------------7-9-----7-9||
A-|------------------------------------------------------------------||
E-|------------------------------------------------------------------||

E-|------------------------------------------------------------------||
B-|------------------------------------------------------------------||
G-|-642----------7-6-------------------------------------------------||
D-|----------7-9-----7-9-------------7/------------------------------||
A-|----------------------------------7/------------------------------||
E-|----------------------------------5/------------------------------||

bueno esa fue toda la cancion espero k les guste
se lo dedico a Magaly :P
Suggest correction
Give kudos to tab author, rate the tab!
1 2 3 4 5
comments
print report bad tab
guest
Wanna post a correction for this tab? Suggest correction