Oops, an error
Loading. Please wait.

Trás Esa Puerta Tab

version 1
version 1

Whole song

22 views 1 this week
no commentswrite comment
1 2 3 4 5
3 more votes to show rating
add to favorites
launch autoscroll
font size
0
reset
how to read this tab
guitar tuner
Autoscroll
slow
fast
+/-
esc
set tempo
stop
Help us to improve Ultimate-Guitar.com Take our survey!
×
AJA!!!!aqui tinen esta super cancion, espero que la disfruten.
La otra tab esta mal,no tiene los acordes correctos,y los punteos.
Aca en esta tab esta todo, esta es la version en vivo pero es igual
a la de  ahi les va !!!!

TRAS ESA PUERTA


   C         G         F          G

e -1-0---0---1-0-------------1------1----
b -----2---------2-0------1--------1-----
g ---------------------2----------2------
d ---------------------------------------
a ---------------------------------------
e ---------------------------------------


   C         G         F          G

e -1-0---0---1-0-------------1------1----
b -----2---------2-0------1--------1-----
g ---------------------2----------2------
d ---------------------------------------
a ---------------------------------------
e ---------------------------------------


   C         G       F        G   

e ---------------------------------------
b ---------------------------------------
g ---------------------------------------
d ---3-2-3-2-----------------------------
a -3---------5-3-2-3---3-2------5-2--2-3-
e -------------------1-----1--3----------


   C                                     G                                          F     G    

e ------------------------------------------------------------------------------------------
b ------------------------------------------------------------------------------------------
g ------------------------------------------------------------------------------------------
d -3-2h3p2h3p2h3p2h3p2h3p2h3p2h3p2h3p2h3p2h3p2h3p2h3p2h3p2h3p2h3p2h3---3p2------------------
a -------------------------------------------------------------------------3-2h3p2----------
e ----------------------------------------------------------------------------------1-----3-
  
     |--------------------------------------------------------------|
                         tocar esto muy rapido


Estrofa:Para la estrofa los acordes solo son  que la intro.


C               G            F           G           C       G
 Hace ya tanto tiempo que camino este camino sin pensar

       F              G                C    G     F    G
 hace tanto y es tan poco el que no estas     

 C              G             F          G             C   G       F     
 'confundo'timidez con ganas de no molestar ni por favor ....y esquivo en cada 
                    
                    G            C    G    F   G          
  vuelta de un espejismo de tu amor


NOTA: Toquen este punteo de abajo apartir de la palabra 'confundo',si es que quieren,ya 
      que asi es en el cd en vivo,y si no toquen los acordes.

e ----1----1----1-----1-----1------1-----1-----1-----1----1----1----1---1------3---------------
b -1----1----1-----1-----1------1-----1-----1-----1----1-----1---1----1---1s(3)--3s(5)-5-6-5---
g ---------------------------------------------------------------------------------------------
d ---------------------------------------------------------------------------------------------
a ---------------------------------------------------------------------------------------------
e ---------------------------------------------------------------------------------------------

e ---------------------------------------
b -3-5-3--1-3-1-1s(3)-5-3----------------
g ---------------------------------------
d ---------------------------------------
a ---------------------------------------
e ---------------------------------------


C             G            F                   G        C     G
 Hace tanto, tanto tiempo que no hay nadie en estos rumbos

            F             G          C      G   F  G
 no se si abandone la compañía en este mundo

C                 G              F             G 
 no se si he avanzado o solo en círculos he andado

C               G           F              G 
 no se si ese cuerpo que cayo fui yo al morir.


   C         G         F          G

e -1-0---0---1-0-------------1------1----
b -----2---------2-0------1--------1-----
g ---------------------2----------2------
d ---------------------------------------
a ---------------------------------------
e ---------------------------------------


   C         G         F          G

e -1-0---0---1-0-------------1--------------
b -----2---------2-0------1-----------------
g ---------------------2--------------------
d --------------------------------5-5--(5)--
a --------------------------------5-5--(5)--
e --------------------------------3-3--(3)--


C           G            F       G           C          G       
 Quieeeeeeeeeeeeeeeeeeeeen es quien va a cambiar la historia

F             G             C         G     F         G
 de esta quietud violenta que me nombra .....y no da mas

C         G        F         G               C       G
 queeeeeeeeeeeeeeeee es lo que hay tras sus viejas glorias

F             G            C          G       F          G 
 que solo es tiempo y refugio en la sombra .... y no da mas.


Nota: (si desean toquelas en 5tas con palm mutting los acordes,ya que asi las tocan en vivo)

F5      G5      C5        G5        F5      G5
 Mis mejores recuerdos daría por llegar en ti

       F5    G5
 y en ti dormir.

 

NOTA: Aca los acordes son (C-G-F-G),igual que la estrofa.

 
 uaaaaaah..Tras esos ojos de alcohol

 uaaaaaah...tras esos muros de piel

 tras esa puerta de miedo he visto 

 calmar un loco corazón.


   C         G       F        G   

e ---------------------------------------
b ---------------------------------------
g ---------------------------------------
d ---3-2-3-2-----------------------------
a -3---------5-3-2-3---3-2------5-2--2-3-
e -------------------1-----1--3----------


   C                                     G                                      F     G    

e ----------------------------------------------------------------------------------------
b ---------------------------------------------------------------------------------------
g ---------------------------------------------------------------------------------------
d -3-2h3p2h3p2h3p2h3p2h3p2h3p2h3p2h3p2h3p2h3p2h3p2h3p2h3p2h3p2h3p2h3---------------------
a ----------------------------------------------------------------------3p2-3-2----------
e ------------------------------------------------------------------------------1-1----3-
  
     |--------------------------------------------------------------|
                         tocar esto muy rapido


 Am          Dm        G              C              F             G               Am              
   Al confundirse la emoción y los deseos se han borrado en algo triste  y no muy nuevo 
e -------------------------------------------------------------------------------------
b -------------------------------------------------------------------------------------
g -------------------------------------------------------------------------------------
d -------------------------------------------------------------------------------------
a ------------------------------------3----(3)-----------------------------------------
e 5------5s(10)--------3----(3)----------------------1-----(1)-----3-------(3)-----5---


          Am                   Dm          G              C          F           G

   por   jugar...             mientras su falta hizo sangrar mi corazón ya mi alma  se lo
e ----------8-8-8--5--5-(5)--------------------------------------------------------------
b --------------------5-(5)--------------------------------------------------------------
g ---------------------------------------------------------------------------------------
d ---------------------------------------------------------------------------------------
a -----------------------------5---(5)--------------------3----(3)-----------------------
e -(5)-------------------------------------3----(3)------------------1---(1)-----3---(3)-


           G
 
 se ha derretido en su interior.

 
C           G            F       G           C          G       
 Quieeeeeeeeeeeeeeeeeeeeen es quien va a cambiar la historia

F             G             C         G     F         G
 de esta quietud violenta que me nombra .....y no da mas

C         G        F         G                C       G
 queeeeeeeeeeeeeeeee es lo que hay tras sus viejas glorias

F             G            C          G       F          G 
 que solo es tiempo y refugio en la sombra .... y no da mas.


Nota: (si desean toquelas en 5tas con palm mutting los acordes,ya que asi las tocan en vivo)

F5      G5      C5        G5        F5      G5
 Mis mejores recuerdos daría por llegar en ti

       F5    G5
 y en ti dormir.

 

NOTA: Aca los acordes son (C-G-F-G),igual que la estrofa.

 
 uaaaaaah..Tras esos ojos de alcohol

 uaaaaaah...tras esos muros de piel

 tras esa puerta de miedo he visto 

 calmar un loco corazón.


   C         G       F        G   
                     calmar a un loco corazon
e -------------------------------------------
b -------------------------------------------
g -------------------------------------------
d ---3-2-3-2---------------------------------
a -3---------5-3-2-3----3---2-------5-2--2-3-
e -------------------1--------1--3-----------


   C                                     G                                      F     G       C

e --------------------------------------------------------------------------------------------0-
b --------------------------------------------------------------------------------------------1-
g --------------------------------------------------------------------------------------------0-
d -3-2h3p2h3p2h3p2h3p2h3p2h3p2h3p2h3p2h3p2h3p2h3p2h3p2h3p2h3p2h3p2h3--------------------------2-
a ---------------------------------------------------------------------3p2-3-2----------------3-
e -----------------------------------------------------------------------------1--1----3--------
                                                                      calmar...a un loco corazon!
     |--------------------------------------------------------------|
                         tocar esto muy rapido

Comentarios,preguntas o etc,mi mail es bracho_rhcp@
Suggest correction
Give kudos to tab author, rate the tab!
1 2 3 4 5
comments
print report bad tab
guest
You may want to rate the tab now too:
select rating
Wanna post a correction for this tab? Suggest correction