Oops, an error
Loading. Please wait.

Trás Esa Puerta Tab

version 2
version 2

Whole song

58 views 1 this week
no commentswrite comment
1 2 3 4 5
3 more votes to show rating
add to favorites
×
Save as Personal and add changes to this tab that will be seen only by you. Learn more ›
×
You can save this tab as Personal to edit and correct it or add notes. All changes will be seen only by you. Learn more »
save as personal
new!
launch autoscroll
font size
0
reset
how to read this tab
guitar tuner
Autoscroll
slow
fast
+/-
esc
set tempo
stop
weno ahí les dejo esta cncion d mar de copas q ta xvr
,se la ddico  pa toos los q les bacila la wena musica ,
escuchan buenos grupos ,,,, y tb pa el ovaleño ?joselo?


TITULO        : Tras esa puerta
GRUPO         : Mar de copas
TRANSCRITO POR: LUIS JOSÉ ALARCÓN CÀRDENAS
FECHA         : 23 de Octubre del 2007


Intro: El rasgueo al ritmo de la cncion px!
En la 1era part dond dice ?C C/F? es un rasgueo abajo
con el C y el siguiente le metes el cambio a C/F(ahí les indique)

x siaca:
      EbGDAE
 C/F: 110230
 G7 : 100023

  0:00            0:03         0:06                0:11
    C C/F  -  G7 - F -  G7       C C/F  -  G7 - F - G7
e|-0--0h1...-1...-1...-1...---|-0--0h1...-1...-1...-1...---|
B|-1--1--...-0...-1...-0...---|-1--1--...-0...-1...-0...---|
G|-0--0--...-0...-2...-0...---|-0--0--...-0...-2...-0...---|
D|-2--2--...-0...-3...-0...---|-2--2--...-0...-3...-0...---|
A|-3--3--...-2...-3...-2...---|-3--3--...-2...-3...-2...---|
E|-X--X--...-3...-1...-3...---|-X--X--...-3...-1...-3...---|


0:12      0:13         0:16    0:17
     C         G7       F         G7
  e|-0-1---0-|--h1----|------1-|-------1-|
  B|-----1---|----1-0-|----1---|-----0---|
  G|---------|--------|--2-----|---0-----|
  D|---------|--------|3-------|---------|
  A|---------|--------|--------|---------|
  E|---------|--------|--------|3--------|


   0:19               0:22
    C         G7       F         G7
  e|-0-1---0-|--h1----|------1-|-------1-|
  B|-----1---|----1-0-|----1---|-----0---|
  G|---------|--------|--2-----|---0-----|
  D|---------|--------|3-------|---------|
  A|---------|--------|--------|---------|
  E|---------|--------|--------|3--------|

 e|-----------------------------------------------|
 B|-----------------------------------------------|
 G|-----------------------------------------------|
 D|-----3-2-3-2-----------------------------------|
 A|-3-------------5-33-2-32-----3-20-----5-3-22-3-|
 E|--------------------------1------1---3---------|


 C               G7           F           G7
  Hace ya tanto tiempo que camino este  camino
e|-----------------------------------------|
B|--1-----1----0-----0----1-----1--0-----0-|
G|----0----------0----------2--------0-----|
D|------2----------0----------3--------0---|
A|-3---------------------------------------|
E|-----------3----------1---------3--------|

C               G7            F           G7
Sin pensar                hace tanto y es tan poco el que
e|----------------------------1------------|
B|--1-----1----0-----0----1--------0-----0-|
G|----0----------0----------2--------0-----|
D|------2----------0-------------------0---|
A|-3---------------------------------------|
E|-----------3----------1---------3--------|

C               G7           F             G7
No estáaaaas
e|---------------------------------------1---|
B|--1-----1----0-----0-------1----------0----|
G|----0----------0---------2--2-------0------|
D|------2----------0-------------------------|
A|-3-----------------------------------------|
E|-----------3----------1-----------3--------|

   0:57
  C              G7          F           G7
  Confundo timidez con ganas de no molestar ni
e|-----------------------------------------|
B|--1-----1----0-----0----1-----1--0-----0-|
G|----0----------0----------2--------0-----|
D|------2----------0----------3--------0---|
A|-3---------------------------------------|
E|-----------3----------1---------3--------|

Por favor        y esquivo en cada vuelta de un espejismo
e|--------------------------------------------------|
B|-------1------------0-----------1-----------0-----|
G|-----0---0--------0---0-------2---2-------0---0---|
D|---2-------2----0-------0---3-------3---0-------0-|
A|-3------------------------------------------------|
E|-------------3------------1-----------3-----------|

De tu amoor
e|----------------3-----------------------------|
B|-------1----------0---0------1----------0-----|
G|-----0---0----------0------2---2------0---0---|
D|-----------2------------------------0---------|
A|-3--------------------------------------------|
E|--------------3----------1--------3-----------|


Hace tanto tanto tiempo que no hay nadie en estos rumbos
e|--------------------------------------------------|
B|-------1------------0-----------1-----------0-----|
G|-----0---0--------0---0-------2---2-------0---0---|
D|--(2)-------2---0-------0---3-------3---0-------0-|
A|-3------------------------------------------------|
E|-------------3------------1-----------3-----------|

                      No se abandone la compañia
e|--------------1------------------------------|
B|--1----(1)-----0---0---------1---------0-----|
G|----0------------0---------2---2-----0---0---|
D|------2------------------3-------3---------0-|
A|-3-------------------------------------------|
E|------------3----------1-----------3---------|

(Aquí solo se hace un rasgueo hacia abajo)
   C       G7          F                  G7(arpegio)
En este mundooo
e|-----0--------1---------1-----------------1-------|
B|----1--------0---------1---(1)--------------0---0-|
G|---0--------0---------2-------(2)-------------0---|
D|--2--------0---------3-----------(3)--------------|
A|-3--------2---------3-----------------------------|
E|---------3---------1--------------------3---------|

  1:35
   C         G7          F        G7
    No se sin he avanzado o solo eh circulos he andado
e|-----------------------------------------|
B|--1-----1----0-----0----1-----1--0-----0-|
G|----0----------0----------2--------0-----|
D|------2----------0----------3--------0---|
A|-3---------------------------------------|
E|-----------3----------1---------3--------|

   1:41
  C              G7        F         G7
   No se si ese cuerpo que cayo fui yo al morir
e|-----------------------------------------|
B|--1-----1----0-----0----1-----1--0-----0-|
G|----0----------0----------2--------0-----|
D|------2----------0----------3--------0---|
A|-3---------------------------------------|
E|-----------3----------1---------3--------|

   1:47
     C         G7       F         G7
  e|-0-1---0-|--h1----|------1-|-------1-|
  B|-----1---|----1-0-|----1---|-----0---|
  G|---------|--------|--2-----|---0-----|
  D|---------|--------|3-------|---------|
  A|---------|--------|--------|---------|
  E|---------|--------|--------|3--------|

   1:53
     C         G7       F         G7
  e|-0-1---0-|--h1----|------1-|-------1-|
  B|-----1---|----1-0-|----1---|-----0---|
  G|---------|--------|--2-----|---0-----|
  D|---------|--------|3-------|---------|
  A|---------|--------|--------|---------|
  E|---------|--------|--------|3--------|

Coro: aquí una guitarra hace este arpegio:
   C
e|------1---------1--------1--------1--|
B|----1---------0--------1--------0----|
G|--0---------0--------2--------0------|
D|-------------------------------------|
A|-3-----------------------------------|
E|----------3-------1--------3---------|

*Riff 1:
e|-0-1---1-|
B|-----0---|
G|---------|
D|---------|
A|---------|
E|---------|


  2:00
  C5(*Riff 1) G5     F5        G5
Quieeeeeeeeeeeeeeeeeeen   es quien
e|-X----------X-------X---------X----|
B|-X----------X-------X---------X----|
G|-5----------X-------X---------X----|
D|-5----------5-------3---------5----|
A|-3----------5-------3---------5----|
E|-X----------3-------1---------3----|

         2:06
          C5(*Riff 1)     G5      F5         G5
Va A cambiar       [ch]A[/ch] historia    de esta quietud violenta
       e|-X---------------X-------X-------------X----|
       B|-X---------------X-------X-------------X----|
       G|-5---------------X-------X-------------X----|
       D|-5---------------5-------3-------------5----|
       A|-3---------------5-------3-------------5----|
       E|-X---------------3-------1-------------3----|

2:12
  C5       G5     F5        G5
  Que me nombra          y no da mas
e|-X----------X-------X-----------X----|
B|-X----------X-------X-----------X----|
G|-5----------X-------X-----------X----|
D|-5----------5-------3-----------5----|
A|-3----------5-------3-----------5----|
E|-X----------3-------1-----------3----|


     2:19
   C5      G5      F5          G5
Queeeeeeeeeeeeeeeeee es lo que hay tras sus
e|-X-------X-------X-----------X----|
B|-X-------X-------X-----------X----|
G|-5-------X-------X-----------X----|
D|-5-------5-------3-----------5----|
A|-3-------5-------3-----------5----|
E|-X-------3-------1-----------3----|

  2:25
   C5      G5      F5            G5
 Viejas glorias      que solo es tiempo y
e|-X-------X-------X--------------X----|
B|-X-------X-------X--------------X----|
G|-5-------X-------X--------------X----|
D|-5-------5-------3--------------5----|
A|-3-------5-------3--------------5----|
E|-X-------3-------1--------------3----|

   2:31
     C5            G5      F5           G5
Refugio en la sombraa         y no daa mas
e|---X--------------X-------X-----------X----|
B|---X--------------X-------X-----------X----|
G|---5--------------X-------X-----------X----|
D|---5--------------5-------3-----------5----|
A|---3--------------5-------3-----------5----|
E|---X--------------3-------1-----------3----|

   2:37                                         2:45
    F5       G5        C5       G5     F5       G5
       Mis meejores recuerdos daría x lleegar a  ti
e|---X---------X--------X--------X------X--------X-|
B|---X---------X--------X--------X------X--------X-|
G|---X---------X--------5--------X------X--------X-|
D|---3---------5--------3--------5------3--------5-|
A|---3---------5--------3--------5------3--------5-|
E|---1---------3--------X--------3------1--------3-|

  2:47
   F5            G5
     Y en ti dormir
e|-X-------------X---|
B|-X-------------X---|
G|-X-------------X---|
D|-3-------------5---|
A|-3-------------5---|
E|-1-------------3---|


 * C5    G5  F5   G5 aquí [ch]A[/ch] otra guitarra acompaña con 5tas)
Y la otra rasguea en estas posiciones:
  2:50                                   2:56
Uaaaaaaaaaaaaaaaaaaa tras esos ojos de alcohol  uaaaaa
e|-8----7----8----10--|----------------8----7----8----10--|
B|-8----8----10---12--|----------------8----8----10---12--|
G|-9----10---10---12--|----------------9----10---10---12--|
D|-10---9----10---12--|----------------10---9----10---12--|
A|-X----X----X----X---|----------------X----X----X----X---|
E|-X----X----X----X---|----------------X----X----X----X---|


Igual q arriba, una hace las 5tas:
                      3:03
                      C5    G5   F5   G5
 Tras esos muros deee piel        uaaa
                    e|-8----7----8----10--|
Y la otra rasguea   B|-8----8----10---12--|
En estas posiciones G|-9----10---10---12--|
                    D|-10---9----10---12--|
                    A|-X----X----X----X---|
                    E|-X----X----X----X---|

                     3:09
                      C5      G5        F5       G5
  Tras esa puerta de miedo he visto calmar un loco corazón
Y luego viene otra vez sto:

   3:15
   C            G7        F        G7
 e|-----------------------------------------------|
 B|-----------------------------------------------|
 G|-----------------------------------------------|
 D|-----3-2-3-2-----------------------------------|
 A|-3-------------5-33-2-32-----3-20-----5-3-22-3-|
 E|--------------------------1------1---3---------|

       3:22
   C            G7        F        G7
 e|-----------------------------------------------|
 B|-----------------------------------------------|
 G|-----------------------------------------------|
 D|-----3-2-3-2-----------------------------------|
 A|-3-------------5-33-2-32-----3-20-----5-3-22-3-|
 E|--------------------------1------1---3---------|

   3:28
 Am          Dm        G            C              F
   Al confundirse la emocion y los deseos se han borrado
e|------5-------5--------3----------0--------------1-|
B|-----5-------6--------3----------1--------------1--|
G|----5-------7--------4----------0--------------2---|
D|---7-------7--------5----------2--------------3----|
A|--7-------5--------5----------3--------------3-----|
E|-5-------X--------3----------X--------------1------|

            3:36
          G             Am       Am
En algo triste y no muy nuevo por jugar
e|--------3--------------0---------0---|
B|-------3--------------1---------1----|
G|------1--------------2---------2-----|
D|-----2--------------2---------2------|
A|----2--------------0---------0-------|
E|---3--------------X---------X--------|

3:40
  Am             Dm             G           C
    Mientras su falta hizo sangrar mi cora-zon y a mi alma
e|------5---------5-----------3--------------0---------|
B|-----5---------6-----------3--------------1----------|
G|----5---------7-----------4--------------0-----------|
D|---7---------7-----------5--------------2------------|
A|--7---------5-----------5--------------3-------------|
E|-5---------X-----------3--------------X--------------|
   3:47
   G             G7
      Se ha derretido en su calor
e|-3...----------1----|
B|-0...----------0----|
G|-0...----------0----|
D|-0...----------0----|
A|-2...----------2----|
E|-3...----------3----|

 3:50
  C5(*Riff 1) G5     F5        G5
Quieeeeeeeeeeeeeeeeeeen   es quien
e|-X----------X-------X---------X----|
B|-X----------X-------X---------X----|
G|-5----------X-------X---------X----|
D|-5----------5-------3---------5----|
A|-3----------5-------3---------5----|
E|-X----------3-------1---------3----|

       3:56
          C5(*Riff 1)     G5      F5         G5
Va A cambiar       [ch]A[/ch] historia    de esta quietud violenta
       e|-X---------------X-------X-------------X----|
       B|-X---------------X-------X-------------X----|
       G|-5---------------X-------X-------------X----|
       D|-5---------------5-------3-------------5----|
       A|-3---------------5-------3-------------5----|
       E|-X---------------3-------1-------------3----|

4:02
  C5       G5     F5        G5
  Que me nombra          y no da mas
e|-X----------X-------X-----------X----|
B|-X----------X-------X-----------X----|
G|-5----------X-------X-----------X----|
D|-5----------5-------3-----------5----|
A|-3----------5-------3-----------5----|
E|-X----------3-------1-----------3----|


  4:09
   C5      G5      F5          G5
Queeeeeeeeeeeeeeeeee es lo que hay tras sus
e|-X-------X-------X-----------X----|
B|-X-------X-------X-----------X----|
G|-5-------X-------X-----------X----|
D|-5-------5-------3-----------5----|
A|-3-------5-------3-----------5----|
E|-X-------3-------1-----------3----|

  4:15
   C5      G5      F5            G5
 Viejas glorias      que solo es tiempo y
e|-X-------X-------X--------------X----|
B|-X-------X-------X--------------X----|
G|-5-------X-------X--------------X----|
D|-5-------5-------3--------------5----|
A|-3-------5-------3--------------5----|
E|-X-------3-------1--------------3----|

   4:21
     C5            G5      F5           G5
Refugio en la sombraa         y no daa mas
e|---X--------------X-------X-----------X----|
B|---X--------------X-------X-----------X----|
G|---5--------------X-------X-----------X----|
D|---5--------------5-------3-----------5----|
A|---3--------------5-------3-----------5----|
E|---X--------------3-------1-----------3----|

   4:28
    F5       G5        C5       G5     F5       G5
       Mis meejores recuerdos daría x lleegar a  ti
e|---X---------X--------X--------X------X--------X--|
B|---X---------X--------X--------X------X--------X--|
G|---X---------X--------5--------X------X--------X--|
D|---3---------5--------3--------5------3--------5--|
A|---3---------5--------3--------5------3--------5--|
E|---1---------3--------X--------3------1--------3--|


  4:37
   F5            G5
     Y en ti dormir
e|-X-------------X---|
B|-X-------------X---|
G|-X-------------X---|
D|-3-------------5---|
A|-3-------------5---|
E|-1-------------3---|


   aquí una guitarra acompaña con 5tas: C5    G5  F5   G5
*Y la otra rasguea en estas posiciones:
  4:40                                   4:47
Uaaaaaaaaaaaaaaaaaaa tras esos ojos de alcohol  uaaaaa
e|-8----7----8----10--|----------------8----7----8----10--|
B|-8----8----10---12--|----------------8----8----10---12--|
G|-9----10---10---12--|----------------9----10---10---12--|
D|-10---9----10---12--|----------------10---9----10---12--|
A|-X----X----X----X---|----------------X----X----X----X---|
E|-X----X----X----X---|----------------X----X----X----X---|


Igual q arriba, una hace las 5tas:
                      4:53
                      C5    G5   F5   G5
 Tras esos muros deee piel        uaaa
                    e|-8----7----8----10--|
Y la otra rasguea   B|-8----8----10---12--|
En estas posiciones G|-9----10---10---12--|
                    D|-10---9----10---12--|
                    A|-X----X----X----X---|
                    E|-X----X----X----X---|

                     4:59
                      C5      G5        F5       G5
  Tras esa puerta de miedo he visto calmar un loco corazón

Y termina así:
       5:06
 e|-----------------------------------------------|
 B|-----------------------------------------------|
 G|-----------------------------------------------|
 D|-----3-2-3-2-----------------------------------|
 A|-3-------------5-33-2-32-----3-20-----5-3-22-3-|
 E|--------------------------1------1---3---------|
   5:12
 e|------------------------------------------------|
 B|------------------------------------------------|
 G|------------------------------------------------|
 D|-----3-2-3-2------------------------------------|
 A|-3-------------5-33-2-32-----3-20-----5-3-22-3^-|
 E|--------------------------1------1---3----------|


e|------L-----s--------| weno eso es too , cualquier cosa
B|-F-----u---i-c-----s-| ahí me mensajean a mi msn:
G|--I-----I-e---u---a--| luis6cuerdas@
D|----N----S-----e-d---|
A|----------------r----|
E|---------------------|
Suggest correction
Give kudos to tab author, rate the tab!
1 2 3 4 5
comments
print report bad tab
guest
Wanna post a correction for this tab? Suggest correction