Oops, an error
Loading. Please wait.

Un Día Sin Sexo Bass

version 1
version 1

Whole song

214 views 1 this week
no commentswrite comment
1 2 3 4 5
3 more votes to show rating
add to favorites
launch autoscroll
font size
0
reset
guitar tuner
×
Best way to learn
"Un Día Sin Sexo"
Autoscroll
slow
fast
+/-
esc
set tempo
stop
JEJEJE  EL BAJO DEL SOUND TRACK DE LA PELICULA
UN DÍA SIN SEXO ESTA BIEN AL 100%. MI AMIGO SLASH ESTA QUE
LOS ESTAFA CON EL OTRO BAJO, LE FALTA AL CHIBOLO PS JEJEJE
VA DEDICADA A MI CLAUDITA Y A MI AMEA JOSSIE JAJAA.

INTRO:

E --6-----6---------------4-4-4-----6-6-6-2-2-2
A ----8-4---5-6-6-6-6--6--------4-3------------
D ---------------------------------------------
G ---------------------------------------------

  Hoy halle entre los dos el pesar de una vida
E -6-6-6-6---------4-4-4-4-----------6...
A ---------6-6-6-6---------4-4-4-4-3--
D ------------------------------------
G ------------------------------------
  El pesar de mis noches el morir de mis días sin saber si aún
E -6-6-6-6---------4-4-4-4-----------6----------------
A ---------6-6-6-6---------4-4-4-4-3---6-6-6-6-6-6-6-6
D ----------------------------------------------------
G ----------------------------------------------------
 Eras mia  eras mia
E -2-2-2-2-2-2-2-2-2------------6...
A -------------------4-4-4-4-3---
D -------------------------------
G -------------------------------
 Hubo un tiempo en que yo no queria dar el brazo a torcer
E -6-6-6-6---------4-4-4-4-----------6...
A ---------6-6-6-6---------4-4-4-4-3--
D ------------------------------------
G ------------------------------------
Pero el alma entrege, porque seas mia sin saber
E -6-6-6-6---------4-4-4-4-----------6...
A ---------6-6-6-6---------4-4-4-4-3--
D ------------------------------------
G ------------------------------------
Que haceeer con tu alegría haaa haaa y tan lejos de mi...
E -2-2-2-2-2-2-2-2-1-1-1-1-1-1-2-2-2--2-2-4-4-4-4...
A -----------------------------------------------
D -----------------------------------------------
G -----------------------------------------------
Te encontree a golpe de un mirar a punto de decir que ya no estoy aqui ...
E -----6-4-2-2-2-2-4-4-4-4----6-4-2-2-2...
A -4-3---------------------4-3------------
D ----------------------------------------
G ----------------------------------------
Y tan cerca de mi yo te hallee cuando busque sobre
E -4-4-4-4----6-4-2-2-2-2-4-4-4-4-
A ---------4-3----------------------
D ----------------------------------
G ----------------------------------
Mi hombro vacio y encontree tu compañia
E -6-6-6-6---------4-4-4-4--6-6-6...
A ---------6-6-6-6---------------
D -------------------------------
G -------------------------------

Cuanto puede cargar tu vida sola cuanto dura una noche
cuanto pesan los días sin saber que haceer
si son distintas... si son distintas
Hubo días en que tuu diste tu brazo a torcer
y ahogaste en el mar de mis recuedos
sin saber nadaaaaaaaaaaar haha haaaa

y tan lejos de ti yo me halle
tan solo recordar a pasos de tu risa y frente a tu mirar
y tan cerca de ti me encontreeee
al preguntar si aún estaba vivo
y encontree que eras mi vidaaaaaaaaaaaaaaaaaaa...
Suggest correction
Give kudos to tab author, rate the tab!
1 2 3 4 5
comments
print report bad tab
guest
You may want to rate the tab now too:
select rating
Wanna post a correction for this tab? Suggest correction