Oops, an error
Loading. Please wait.

Un Día Sin Sexo Bass Tab

version 2
version 2

Whole song

46 views 3 this week
no commentswrite comment
1 2 3 4 5
3 more votes to show rating
add to favorites
launch autoscroll
font size
0
reset
guitar tuner
×
Best way to learn
"Un Día Sin Sexo"
Autoscroll
slow
fast
+/-
esc
set tempo
stop
bueno aca les mando el bajo de hermosa cancionn
como los demas estan moncess
SACADA POR GRUPO RESISTENCIA PUENTE PIEDRA

intro:

G---------------------------------------------
D---------------------------------------------
A---------------------------------------------
E---6--1---9---6---10---11-11-11-11--11----9--te kedas un tk ahi

G-------------------------------------------
D-------------------------------------------
A-------------------------------------------
E--8----6/1-------9------------------------

en esta parte 6/1 jalas lento para  atras ok

  Hoy halle entre los dos el pesar de una vida
E -6-6-6-6---------4-4-4-4-----------6...
A ---------6-6-6-6---------4-4-4-4-3--
D ------------------------------------
G ------------------------------------
  El pesar de mis noches el morir de mis días sin saber si aún
E -6-6-6-6---------4-4-4-4-----------6----------------
A ---------6-6-6-6---------4-4-4-4-3---6-6-6-6-6-6-6-6
D ----------------------------------------------------
G ----------------------------------------------------
 Eras mia  eras mia
E -2-2-2-2-2-2-2-2-2------------6...
A -------------------4-4-4-4-3---
D -------------------------------
G -------------------------------
 Hubo un tiempo en que yo no queria dar el brazo a torcer
E -6-6-6-6---------4-4-4-4-----------6...
A ---------6-6-6-6---------4-4-4-4-3--
D ------------------------------------
G ------------------------------------
Pero el alma entrege, porque seas mia sin saber
E -6-6-6-6---------4-4-4-4-----------6...
A ---------6-6-6-6---------4-4-4-4-3--
D ------------------------------------
G ------------------------------------
Que haceeer con tu alegría haaa haaa y tan lejos de mi...
E -2-2-2-2-2-2-2-2-1-1-1-1-1-1-2-2-2--2-2-4-4-4-4...
A -----------------------------------------------
D -----------------------------------------------
G -----------------------------------------------
Te encontree a golpe de un mirar a punto de decir que ya no estoy aqui ...
E -----6-6-6-6-2-2-2-2-4-4-4-4----6-6-6-6-2-2-2...
A -4-3-------------------------4-3------------
D --------------------------------------------
G --------------------------------------------
Y tan cerca de mi yo te hallee cuando busque sobre
E -4-4-4-4----6-6-6-2-2-2-2-4-4-4-4-
A ---------4-3----------------------
D ----------------------------------
G ----------------------------------
Mi hombro vacio y encontree tu compañia
E -6-6-6-6---------4-4-4-4----------6...
A ---------6-6-6-6---------4-4-4-4-3-
D -----------------------------------
G -----------------------------------
bueno simple verdad asi lo hace fher
Suggest correction
Give kudos to tab author, rate the tab!
1 2 3 4 5
comments
print report bad tab
guest
You may want to rate the tab now too:
select rating
Wanna post a correction for this tab? Suggest correction