Oops, an error
Loading. Please wait.

Un Día Sin Sexo Tab

679 views 15 this week
no commentswrite comment
1 2 3 4 5
3 more votes to show rating
add to favorites
launch autoscroll
font size
0
reset
how to read this tab
guitar tuner
×
Best way to learn
"Un Día Sin Sexo"
Autoscroll
slow
fast
+/-
esc
set tempo
stop
UN DÍA SIN SEXO (MAR DE COPAS)

CAPO EN I

INTRO:

   A5-E5-C5-A5 C#5-D5  G5 C5-B5-A5    F5
||---------------|----------------------------|
||---------------|----------------------------|
||-------5-----/6/-7~~~~----5--4--2~~~~-------|
||-7--2--5--7--/6/-7~~~~-5--5--4--2~~~~-3~~~~-|
||-7--2--3--7--/4/-5~~~~-5--3--2--0~~~~-3~~~~-|
||-5--0-----5----|-------3--------------1~~~~-|

Am                   Dm  G                 C
 Hoy hallé entre los dos  el pasar de una vida
Am                Dm    G                 C
 el pesar de mis noches  el morir de mis días
       Am     Dm     F         C
sin saber si aún eras mía, eras mía
Am                      Dm G                   C
 Hubo un tiempo en que yo   no quería dar un brazo a torcer
Am                   Dm G             C
 pero el alma entregué   porque seas mía
C/B    Am        F              E
sin saber que hacer con tu alegríaaa ahah ahah...

F                G           C  C/B Am  G
 Y tan lejos de mí te encontré  eh eeh eeheh...
F                 G                C      C/B      Am     G
 a golpe de un mirar a punto de decir que ya no estoy aquí
F                G           C  C/B Am  G
 Y tan cerca de mí yo te hallé  eh eeh eeeh...
F            G                    Am
 cuando busqué sobre mi hombro vacío
         Dm  G         Am   Am7
y encontré... tu compañía

Am                Dm G         C
 Cuánto puede cargar  tu vida sola
Am                Dm   G                  C
 Cuánto dura una noche, cuánto pesan dos vidas
      Am         Dm            F                   C  (C-C/B-Am)
sin saber que hacer si son distintas... si son distintas
Am                 Dm  G           C
 Hubo días en que tu... diste tu brazo a torcer
Am                   Dm  G           C  C/B
 te ahogaste en el mar... de mis recuerdos
       Am    F         E
sin saber nadaaaah ahahaar aahah ahaahah

INTERLUDE

 Am     Dm     G        C      Am    Dm    F       E
------------|--------------|------------|/8-8~~~-----|-----
-10~~--(10)-|-10p8-10--10~~|-/10~~-(10)|---------9~~|~~~--
------------|--------------|------------|------------|-----
------------|--------------|------------|------------|-----
------------|--------------|------------|------------|-----
------------|--------------|------------|------------|-----

F                G           C  C/B  Am  G
 Y tan lejos de mí te encontré  eeeh eeh eeeh...
F                 G                C      C/B        Am   G
 A golpe de un mirar a punto de decir que ya no estoy aquí
F                G           C  C/B  Am  G
 Y tan cerca de mí yo te hallé  eheh eeh eeeh...
F            G                    Am
 Cuando busqué sobre mi hombro vacío
         Dm  G         C C/B Am G
y encontré... tu compañía ah ah ah ah

F                G           C C/B   Am  G
 Y tan lejos de ti yo me hallé eheh eeh eeeh...
F               G                 C       C/B     Am    G
 tan solo recordar a pasos de tu risa y frente a tu mirar
F                G           C C/B  Am  G
 Y tan cerca de ti me encontré  eh eeh eeeh...
F          G                 Am
 al preguntar si aún estaba vivo
         Dm G              C  C/B Am  G  F
y encontré... que eras mi vida ah ah aaah
G             C C/B Am  G  F G             C C/B Am  G  F
 Que eras mi vidaaa ah ah ah  Que eras mi vidaaa ah ah ah ah
G             C C/B Am  G  F   G    Am     Dm    G
 Que eras mi vidaaa ah ah aaah  Wo uoh uohooh uohooh ooh

OUTRO:

  C-C/B -Am - G -  F      G      C-C/B -Am-G - F       G
||Guit.1-------------------------------------------------
||-------------------------------------------------------
||-------------------------------------------------------
||-------------------------------------------------------
||-------7--5-8/10-8--8-7-5--3/5/7----753----2/3~~/5/7-5-
||---8-7-5---8-------------------------------------------

    C-C/B-Am -G-F      G      C-C/B - Amm G -  F      G
|--------------------------------------------------------
|--------------------------------------------------------
|--------------------------------------------------------
|--------------------------------------------------------
|8887~75/7--2/3~~/5/7-5--233----------------------------
|--------------------------------------------------------
|
|Guit.2--------------------------------------------------
|--------------------------5-6s8--8-6-5(5)-5b~r3-33------
|------------------[5b]---5---------------------5--------
|--------------------------------------------------------
|--------------------------------------------------------
|--------------------------------------------------------

   Am                  Dm                   G
|--------------------------------------------------
|--6p5-----5-6p5-----5-6p5-----5-6p5-----5-6s8~~---
|-----7-5-7-----7-5-7-----7-5-7-----7-5-7----------
|--------------------------------------------------
|--------------------------------------------------
|--------------------------------------------------

     C -C/B -Am-G-F           G      C-C/B-Am-  G-F      G
|-------------------------------------------------------------
|-8-66-5-5br(5)----5br(5)-------------------------------------
|------------------------7-5-77--4/55---4/55---4/55/77/97-7-
|-------------------------------------------------------------
|-------------------------------------------------------------
|-------------------------------------------------------------

    C-C/B-Am-  G - F     G       C-C/B-Am-G -F      G
|--------------------------------------------------------
|5h66-5--5-------------------5b~r5--5b~r5--5b^~r5--------
|---------7-5--4/55/77/97-7---------------------7p5-77--
|--------------------------------------------------------
|--------------------------------------------------------
|--------------------------------------------------------

    Am                  Dm                   G
|--------------------------------------------------
|--6p5-----5-6p5-----5-6p5-----5-6p5-----5-6s8~~---
|-----7-5-7-----7-5-7-----7-5-7-----7-5-7----------
|--------------------------------------------------
|--------------------------------------------------
|--------------------------------------------------

     C -C/B -Am-G-F   (Fade Out)
|------------------
|-8-66-5-5br(5)~~--
|------------------
|------------------
|------------------
|------------------
Suggest correction
Give kudos to tab author, rate the tab!
1 2 3 4 5
comments
print report bad tab
guest
You may want to rate the tab now too:
select rating
Wanna post a correction for this tab? Suggest correction