Oops, an error
Loading. Please wait.

Un Día Sin Sexo Bass

version 3
version 3

Whole song

48 views 1 this week
no commentswrite comment
1 2 3 4 5
3 more votes to show rating
add to favorites
launch autoscroll
font size
0
reset
guitar tuner
×
Best way to learn
"Un Día Sin Sexo"
Autoscroll
slow
fast
+/-
esc
set tempo
stop
En version COMPLETA (DE 6 MINUTOS), sigue el ritmo de la canción.

Introducción:

E -6--------6-------------4-4-4-4--------6-6-6-6-2-2-2-2- --> c. graves
A ----8--4-----5-6-6-6-6-4--------4--3-------------------
D -------------------------------------------------------
G ------------------------------------------------------- --> c. agudas


Estrofa I:

  Hoy halle entre los dos el pesar de una vida
E -6-6-6-6---------4-4-4-4------------
A ---------6-6-6-6---------4-4-4-4-3--
D ------------------------------------
G ------------------------------------
  el pesar de mis noches el morir de mis días sin saber si aún
E -6-6-6-6---------4-4-4-4-------6-6-6-6------------
A ---------6-6-6-6---------4--3---------6-6-6-6-----
D --------------------------------------------------
G --------------------------------------------------
  eras mia,  eras mia
E -2-2-2-2-2-2-2-2-2------------
A -------------------4-4-4-4-3--
D ------------------------------
G ------------------------------


Estrofa II:

 Hubo un tiempo en que yo no queria dar el brazo a torcer
E -6-6-6-6---------4-4-4-4------------
A ---------6-6-6-6---------4-4-4-4-3--
D ------------------------------------
G ------------------------------------
 pero el alma entrege, porque seas mia sin saber
E -6-6-6-6---------4-4-4-4-------6-6-6-6
A ---------6-6-6-6---------4--3---------
D --------------------------------------
G --------------------------------------
 que hacer con tu alegría aaa aaa aa aa
E -2-2-2-2-2-2-2-1-1-1-1-1-1-1-----
A ---------------------------------
D ---------------------------------
G ---------------------------------


Coro:

 Y tan lejos de mi
E -2-2-2-2-2-2-4-4-4-4-4-4-----
A -----------------------------
D -----------------------------
G -----------------------------
 te encontre a golpe de un mirar a punto de decir que ya no estoy aqui
E -------6--4--2-2-2-2-4-4-4-4------6--4---
A -4--3------------------------4--3--------
D -----------------------------------------
G -----------------------------------------

 y tan cerca de mi yo te halle cuando busque sobre
E -2-2-2-2-4-4-4-4------6--4--2-2-2-2-4-4-4-4-
A -----------------4--3----------------------
D ----------------------------------
G ----------------------------------

 mi hombro vacio y encontre tu compañia
E -6-6-6-6---------4-4-4-4-------------
A ---------6-6-6-6---------4...--------
D -------------------------------------
G -------------------------------------


Repetir Estrofa I

Cuanto puede cargar tu vida sola
cuanto dura una noche
cuanto pesan los días
sin saber que hacer
si son distintas, si son distintas


Repetir Estrofa II

Hubo días en que tu diste tu brazo a torcer
y te ahogaste en el mar de mis recuedos
sin saber nadar aAa aAaA


Solo:

E -6-6-6-6---------4-4-4-4------------
A ---------6-6-6-6---------4-4-4-4-3--
D ------------------------------------
G ------------------------------------

E -6-6-6-6---------2-2-2-2-2-2-2-1-1-1-1-1-1-1-
A ---------6-6-6-6-----------------------------
D ---------------------------------------------
G ---------------------------------------------


Coro:

 Y tan lejos de mi
E -2-2-2-2-2-2-4-4-4-4-4-4-----
A -----------------------------
D -----------------------------
G -----------------------------
 te encontre a golpe de un mirar a punto de decir que ya no estoy aqui
E -------6--4--2-2-2-2-4-4-4-4------6--4---
A -4--3------------------------4--3--------
D -----------------------------------------
G -----------------------------------------

 y tan cerca de mi yo te halle cuando busque sobre
E -2-2-2-2-4-4-4-4------6--4--2-2-2-2-4-4-4-4-
A -----------------4--3----------------------
D ----------------------------------
G ----------------------------------

 mi hombro vacio y encontre tu compañia
E -6-6-6-6---------4-4-4-4-------6--4--
A ---------6-6-6-6---------4--3--------
D -------------------------------------
G -------------------------------------

 Y tan lejos de tí
E -2-2-2-2-2-2-4-4-4-4-4-4-----
A -----------------------------
D -----------------------------
G -----------------------------

 yo me halle tan solo recordar a pasos de tu risa y frente a tu mirar
E -------6--4--2-2-2-2-4-4-4-4------6--4---
A -4--3------------------------4--3--------
D -----------------------------------------
G -----------------------------------------

 y tan cerca de ti me encontre al preguntar si aún
E -2-2-2-2-4-4-4-4------6--4--2-2-2-2-4-4-4-4-
A -----------------4--3----------------------
D ----------------------------------
G ----------------------------------

 estaba vivo y encontre que eras mi vida
E -6-6-6-6---------4-4-4-4-------6--4--
A ---------6-6-6-6---------4--3--------
D -------------------------------------
G -------------------------------------

 que eras mi vida
E -2-2-2-2-4-4-4-4------6--4--
A -----------------4--3-------
D ----------------------------
G ----------------------------

 que eras mi vida
E -2-2-2-2-4-4-4-4------6--4--
A -----------------4--3-------
D ----------------------------
G ----------------------------

 que eras mi vida aaa a a aa
E -2-2-2-2-4-4-4-4------6--4--
A -----------------4--3-------
D ----------------------------
G ----------------------------

 wouo ouo uo uooo oo

E -2-2-2-2-4-4-4-4--6-6-6-6----------4-4-4-4-------6--4-
A ---------------------------6-6-6-6---------4--3-------
D ------------------------------------------------------
G ------------------------------------------------------

E -2-2-2-2-4-4-4-4------6--4--
A -----------------4--3-------
D ----------------------------
G ----------------------------... Bis
Suggest correction
Give kudos to tab author, rate the tab!
1 2 3 4 5
comments
print report bad tab
guest
You may want to rate the tab now too:
select rating
Wanna post a correction for this tab? Suggest correction