Oops, an error
Loading. Please wait.

Te Tengo Aquí Tab

34 views 1 this week
no commentswrite comment
1 2 3 4 5
3 more votes to show rating
add to favorites
launch autoscroll
font size
0
reset
how to read this tab
guitar tuner
×
Best way to learn
"Te Tengo Aquí"
Autoscroll
slow
fast
+/-
esc
set tempo
stop
   MANDEN A MI CORREO CUALQUIER CANCION Q QUIERAN YO LA SACO NOMAS
   BAY

   A# - D#m - F# - A#  (bis)

   ESTE ES EL BAJO DE ACOMPAÑAMIENTO

   E---------------------------
   B---------------------------
   G---------------------------
   D---------1---1---3-1-0-----   Y SE LO ACOMPAÑA EN CADA ESTROFA
   A--1----1---1---------------
   E---------------------------

       A#
     estar con otra mujer
        D#m                              F#
     no sé que por el mundo todo recorrer
                                  A#
     ¿para que buscar? si tengo aquí
   E---------------------------
   B---------------------------
   G---------------------------
   D---------1---1---3-1-0-----  SE ACOMPAÑA
   A--1----1---1---------------
   E---------------------------

     A#
     Todo mi dinero puedo malgastar
         D#m
     conocer mujeres que me quieran amar
           F#                      A#
     ¿para que buscar? si tengo aquí
   E---------------------------
   B---------------------------
   G---------------------------
   D---------1---1---3-1-0-----  SE ACOMPAÑA
   A--1----1---1---------------
   E---------------------------


    A#                    D#m          BAJO
   cuando a ti te pienso    D----3--1---------
    F#                               A#
    más que un pensamiento es puro amor
       A#                    D#m
    la forma que tienes de amarme D----3--1---------
       F#                   A#
    me hace sonreir el corazón

    A#                 D#m                  ACOMPAÑAMIENTO
  tiempo que espero por ti    G---------3---1-----------
       F#                     A#     D--0-1-3----3-----4-3-1---
    tu eres el fin de mi soledad
    A#                 D#m
    es que ahora ya estás junto a mi      G---------3---1----------
          F#                         A#   D--0-1-3----3-----4-3-1--
    y mi sueño hoy se ha hecho realidad

 EST.


   nena se que tengo suerte D----3--1-----
    nunca voy a terminar de agradecer
    juntos eternamente           D----3--1------
    si te pierdo no sabría como hacer

  la fuerza en mi interior   G---------3---1--------
                                    D--0-1-3----3----4-3-1-
    si tú no estas ya no se más quien soy

    sólo déjame hacerte feliz       G---------3---1--------
                                    D--0-1-3----3----4-3-1-
    no importa dónde estés vives en mi

 EST.

       A#         D#m
 si, soy feliz
            F#                  A#
    lo que siento te lo debo a ti
      A#                         D#m
    me haces sentir que hoy he vuelto a vivir
       F#                           A#
    si vives por mi yo viviré por ti

   E---------------------------
   B---------------------------
   G---------------------------    X2
   D---------1---1---3-1-0-----
   A--1----1---1---------------
   E---------------------------


   A# - D#m - F# - A#  (bis)


 EST. (bis)

 -----------------------------------------------
  QUE VIVA LA MUSICA
Suggest correction
Give kudos to tab author, rate the tab!
1 2 3 4 5
comments
print report bad tab
guest
You may want to rate the tab now too:
select rating
Wanna post a correction for this tab? Suggest correction