Oops, an error
Loading. Please wait.

Valió La Pena Tab

561 views 6 this week
no commentswrite comment
1 2 3 4 5
3 more votes to show rating
add to favorites
launch autoscroll
font size
0
reset
how to read this tab
guitar tuner
Autoscroll
slow
fast
+/-
esc
set tempo
stop
Marc Anthony
Valió la pena
AUTOR: Estéfano, José Luis Pagán
ALBUM: Amar Sin Mentiras

Hola esto es una canción muy buena espero
que les guste mucho mi trascripción

Introducción

E---5-5-3-|-5-3-5-5-3-|
A---------|-----------|
D---------|-----------|
G---------|-----------|
B---------|-----------|
e---------|-----------|

aquí se empieza a cantar;

E---5-5-3-|-5-3-5-5-3-|----5-3-|
A---------|-----------|--------|
D---------|-----------|--------|
G---------|-----------|--------|
B---------|-----------|--------|
e---------|-----------|--------|
[ch]Am[/ch]
Mirándote a los ojos se responden mis porqués

E---5-5-3-|-5-3-5-5-3-|----5-3-|
A---------|-----------|--------|
D---------|-----------|--------|
G---------|-----------|--------|
B---------|-----------|--------|
e---------|-----------|--------|
Me inspiro en tus palabras y mi casa está en tu piel

E---------|-----------|--------|
A---5-5-3-|-5-3-5-5-3-|----5-3-|
D---------|-----------|--------|
G---------|-----------|--------|
B---------|-----------|--------|
e---------|-----------|--------|
            [ch]Dm[/ch]
Que tierno amor, mi devoción, viniste a ser mi religión

E---5-5-3-|-5-3-5-5-3-|----5-3-|
A---------|-----------|--------|
D---------|-----------|--------|
G---------|-----------|--------|
B---------|-----------|--------|
e---------|-----------|--------|
            [ch]Am[/ch]
Mi dulce sentimiento de nada me arrepiento

E---------|-----------|--------|-------|
A--7-7-5--|--7-5------|--5-5-3-|--5-3--|
D---------|-----------|--------|-------|
G---------|-----------|--------|-------|
B---------|-----------|--------|-------|
e---------|-----------|--------|-------|
               [ch]E[/ch]                        [ch]Dm[/ch]
Que vivan los momentos en tu boca y en tu cuerpo

E---5-5-3-|-5-3-5-5-3-|----5-3-|
A---------|-----------|--------|
D---------|-----------|--------|
G---------|-----------|--------|
B---------|-----------|--------|
e---------|-----------|--------|
[ch]Am[/ch]
Mujer?

Coro:
[ch]Am[/ch]
Valió la pena lo que era necesario para estar contigo amor
               [ch]Dm[/ch]
Tú eres una bendición
Las horas y la vida de tu lado nena
                               [ch]E[/ch]
Están para vivirlas pero a tu manera
Enhorabuena, porque valió la pena
          [ch]Am[/ch]
Valió la pena....
[ch]Am[/ch]
Valió la pena lo que era necesario para estar contigo amor
               [ch]Dm[/ch]
Tú eres una bendición
Las horas y la vida de tu lado nena
                               [ch]E[/ch]
Están para vivirlas pero a tu manera
                             [ch]Am[/ch]
Enhorabuena, porque valió la pena
Valió la pena, valió la pena?

-------------------------------------
 [ch]Am[/ch]
Te veo y me convenzo que tenías que llegar
Después de la tormenta aquí en tu pecho puedo anclar
          [ch]Dm[/ch]
Y ser más yo, de nuevo yo, y por bandera mi ilusión
              [ch]Am[/ch]
Y mira si te quiero que por amor me entrego
                [ch]E[/ch]                        [ch]Dm[/ch]
Que vivan los momentos en tu boca y en tu cuerpo
[ch]Am[/ch]
Mujer....

Coro...
[ch]Am                              [ch]E[/ch]            LAm[/ch]
Pena te digo que valio la pena, estar contigo amor
(porque tu eres?)
[ch]Am                              [ch]E[/ch]            LAm[/ch]
Pena te digo que valio la pena, estar contigo amor

Bueno aquí les dejo mi primera trascripción ojalá les guste.
Cualquier duda por favor me escriben
Suggest correction
Give kudos to tab author, rate the tab!
1 2 3 4 5
comments
print report bad tab
guest
You may want to rate the tab now too:
select rating
Wanna post a correction for this tab? Suggest correction