Oops, an error
Loading. Please wait.

A Tí Sea La Gloria Tab

71 views 1 this week
no commentswrite comment
1 2 3 4 5
3 more votes to show rating
add to favorites
launch autoscroll
font size
0
reset
how to read this tab
guitar tuner
Autoscroll
slow
fast
+/-
esc
set tempo
stop
Help us to improve Ultimate-Guitar.com Take our survey!
×
INTRO:
e--------------------------------------------------
B--------------------------------------------------
G---13b15-11-11b13------13b15-11-11b13--11---------
D-13--------------13--13--------------13--13-11-9--

B                   F#  E    B
   No existen mas motivos Señor
               F#  E   G#m
Venimos hoy rendidos a Ti.
           D#m                  F#           C#7
La unica razon de nuestra adoracion hoy eres tu
   C#m    D#m7    E    F#   G#m      F#
Elevamos olor fragante para ti, para ti.

CORO:
        B        F#/D# B/G#  C#m
Solo a ti sea la glo - ria  Señor
       E          F#    B
La alabanza y la adoracion
       C#m                    Em           F#
Toda rodilla se doble ante el unico Rey y Dios.
        B        F#/D# B/G#  C#m
Solo a ti sea la glo - ria Señor
       E          F#    B
La alabanza y la adoracion
          C#m                Em            F#
Que toda lengua confiese que Tu eres el Señor.

Se repite todo?

Y luego una vez más el intro pero esta vez  tiene un pequeño cambio?
e--------------------------------------------------
B--------------------------------------------------
G---13b15-11-11b13------13b15-11-11b13--11---------
D-13--------------13--13--------------13--13-11-9--

e--------------------------------------------------
B--------------------------------------------------
G---13b15-11-11b13------13b15-16-18-20-20p16-------
D-13--------------13--13---------------------------

/CORO/

Hermosa cancion?la Gloria, la alabanza y
la adoración sea para ti nuestro único Rey y Dios?
espero que les sirva de mucho esta tablatura?
Un saludo especial a la iglesia IPUI Santa Isabel de Maicao-Colombia?
los amo mucho en el amor de Cristo..
Cualquier comentario háganmelo saber?este es mi facebook: Jean parody
Suggest correction
Give kudos to tab author, rate the tab!
1 2 3 4 5
comments
print report bad tab
guest
You may want to rate the tab now too:
select rating
Wanna post a correction for this tab? Suggest correction