Oops, an error
Loading. Please wait.

Fluye En Mí Tab

71 views 1 this week
no commentswrite comment
1 2 3 4 5
3 more votes to show rating
add to favorites
launch autoscroll
font size
0
reset
how to read this tab
guitar tuner
Autoscroll
slow
fast
+/-
esc
set tempo
stop
Help us to improve Ultimate-Guitar.com Take our survey!
×
Esta es una version para electrica que incluye el arpegio
principal de la estructura de C
Que es la nota principal de dicha cancion.... asi empieza:

E--------------------------------------------
A------------------------------------------
D-----------------9-9-7----------------------
G---5-5-5-5-5-7-9----------------------------
B--5-5-5-5------------------------------------
e---------------------------------------------
esta estructura se mantiene en las estrofa tienen que saberla
 tocar llevando los tiempos
en el coro se trabajan con quintas

         [ch]C5[/ch]                  [ch]G5[/ch]
Fuye en mi, como río en primavera
                   [ch]A5[/ch]                      [ch]F5[/ch]
como aquella vez primera cuando yo te conocí.

y asi se repite la secuencia hay que ser muy limpios a la ora de tocarla

Y El solo es suer facil

E-------------------------------------------------------------
A-----------------------------------------------------------
D---------------------------------------------------------9-9-7---
G--5s7-7-5s7-5-5s7-5-5s7-7-9-11--5s7-7-5s7-5-5s7-5--5-7-9--------
B----------------------------------------------------------------------
e----------------------------------------------------------------------



E----------------------------------------------------
A---------------------------------------------------
D--------------------------------------9--------------
G--5s7-7-5s7-5-5s7-5-5s7-7-9-11--5-7-9---7-7-11
B----------------------------------------------------
e----------------------------------------------------

Y el  Final

E----------------------------------------------------
A---------------------------------------------------
D---------------------------------------------
G--5s7-7-5s7-5-9-11--5-7-9---7-7-11
B----------------------------------------------------
e----------------------------------------------------
Suggest correction
Give kudos to tab author, rate the tab!
1 2 3 4 5
comments
print report bad tab
guest
You may want to rate the tab now too:
select rating
Wanna post a correction for this tab? Suggest correction