Oops, an error
Loading. Please wait.

Te Está Pasando Lo Mismo Que A Mí Tab

46 views 1 this week
no commentswrite comment
1 2 3 4 5
3 more votes to show rating
add to favorites
launch autoscroll
font size
0
reset
how to read this tab
guitar tuner
Autoscroll
slow
fast
+/-
esc
set tempo
stop
Dedico está canción a una nueva amiga de mi posible futura facultad.
Ya es abogada, y ahora va por idiomas, She's great....:)
Aunque la acabo de conocer, me parece fantastica

                       Â?MELVAÂ?  


CHORDS:

                   Después del solo
   *A  *C  **C     *A#  *C#  **C#  ***C#  D#m
e   5   3    8      6    1     4      9    2
B   2   5    5      3    2     6      6    4
G   2   5    5      3    1     6      6    3
D   2   5    5      3    3     6      6    1
A   0   3    7      5    4     4      8    x
E   x   x    8      6    x     x      9    x

e|--------------------------|---------------------|
B|--------------------------|---------------------|
G|--------------------------|---------------------|
D|---3---------3------------|-3---------3-2-------|
A|-5---5-3---5---5----3-4-5-|---5-3---5-----3-5-3-|
E|---------5--------5-------|-------5-------------| (x3)

e|--------------------------|----------------------------|
B|--------------------------|----------------------------|
G|--------------------------|--------------5-5-5---------|
D|---3---------3------------|-3-------6/7--------5-3-5-3-|
A|-5---5-3---5---5----3-4-5-|---5-3----------------------|
E|---------5--------5-------|-------5--------------------|


Dm         A#     C          Dm
 Probé de todo..., para olvidarte,
Dm          A#     C         Dm
 me fui bien lejos, quise dejarte.
Dm           A#   C         Dm
 Con la distancia, logre tenerte más en mente,
Dm        A#  C          F             C
 y preguntarme... ¿por qué... nos separamos?,
    F               C    C-A
si aún... nos extrañamos.

    Dm                *A                    C
 Ya sé, que te esta pasando lo mismo que a mi
               *C                A#
 esperas encontrarme en algún lugar,
                              A
 recorres cada sitio donde solíamos estar.

    Dm                *A                  **C
 Ya sé, que te esta pasando lo mismo que a mí,
         *C                A#
 preguntas si me vieron pasar
               A
 de la mano de otro amor.


e|--------------------------|-----------------------------|
B|--------------------------|-----------------------------|
G|--------------------------|-----------------------------|
D|---3---------3------------|-----------------------------|
A|-5---5-3---5---5----3-4-5-|---------------3-5-----3---5-|
E|---------5--------5-------|-1-3-1-3-1-3-1-------5---5---|


 |------------------------|-------------------|
 |------------------------|-------------------|
 |------------------------|-------------------|
 |-3---------3------------|-3---------3-2-----|
 |---5-3---5---5----3-4-5-|---5-3---5-----3-5-|
 |-------5--------5-------|-------5-----------|


Dm        A#   C       Dm
 Tuvimos miedo a enamorarnos,
Dm          A#   C          Dm
 volvernos locamente apasionados,
Dm           A#    C             Dm
 querer ser libres, es nuestro gran castigo,
Dm        A#           C
 no dejo de pensar en ti.
                     F            C
 Y me pregunto ¿por qué, nos separamos?
   F             C   C-A
 si aún nos extrañamos.

    Dm                *A                    C
 Ya sé, que te esta pasando lo mismo que a mi
               *C                A#
 esperas encontrarme en algún lugar,
                              A
 recorres cada sitio donde solíamos estar.

    Dm                *A                  **C
 Ya sé, que te esta pasando lo mismo que a mí,
         *C                A#
 preguntas si me vieron pasar
               A
 de la mano de otro amor.


***
e|----------------7------7--7----|-----------------7---------|
B|-10-9-7--7-9-10---10-9------10-|-9-7------7-9-10---10-9--7-|
G|-------------------------------|-----9--9------------------|
D|-------------------------------|---------------------------|
A|-------------------------------|---------------------------|
E|-------------------------------|---------------------------|

 |-----------------------------------------|
 |-------------7-7--------------7--7-7-9-9-|
 |-9--7-7--7-9------9-7--7-9-10------------|
 |-----------------------------------------|
 |-----------------------------------------|
 |-----------------------------------------|

 |-9-9-9-9-7----------------7------7--7----|-----------------7---------|
 |-----------10-9-7--7-9-10---10-9------10-|-9-7------7-9-10---10-9--7-|
 |-----------------------------------------|-----9--9------------------|
 |-----------------------------------------|---------------------------|
 |-----------------------------------------|---------------------------|
 |-----------------------------------------|---------------------------|

 |-----------------------------------------|
 |-------------7-7--------------7--7-7-9-9-|
 |-9--7-7--7-9------9-7--7-9-10------------|
 |-----------------------------------------|
 |-----------------------------------------|
 |-----------------------------------------|


    D#m               *A#                 *C#
 Ya sé, que te esta pasando lo mismo que a mí
              **C#               B
 esperas encontrarme en algún lugar,
                              A#
 recorres cada sitio donde solíamos estar.

    D#m               *A#               ***C#
 Ya sé, que te esta pasando lo mismo que a mí,
        **C#               B
 preguntas si me vieron pasar
               A#
 de la mano de otro amor.

    D#m               *A#                 *C#
 Ya sé, que te esta pasando lo mismo que a mí
              **C#               B
 esperas encontrarme en algún lugar...,
          A#
 donde solíamos estar.

    D#m               *A#               ***C#
 Ya sé, que te esta pasando lo mismo que a mí,
        **C#               B
 preguntas si me vieron pasar
               A#
 de la mano de otro amor.

  D#m                                             D#m
e|--------------------------|-----------------------|
B|--------------------------|-----------------------|
G|--------------------------|-----------------------|
D|---4---------4------------|-4---------4-3---------|
A|-6---6-4---6---6----4-5-6-|---6-4---6-----4-6-4-6-|
E|---------6--------6-------|-------6---------------|


 |----------------------------|--------------------------|
 |----------------------------|--------------------------|
 |----------------------------|--------------------------|
 |----------------------------|------------------------4-|
 |---------------4-6--6-6---4-|---------------4-6--4-6---|
 |-0-2-0-2-0-2-0----------6---|-0-2-0-2-0-2-0------------|


 |-----------------------------------------------------------|
 |-----------------------------------------------------------|
 |-----------3-3/6-6-----------------------------------------|
 |-------4-4---------6-4-6-4-------4-------------------------|
 |-6-4-6---------------------6-4-6---6-4-6-4-------------4-6-|
 |-------------------------------------------6-4-6-4-2-0-----|


 |----------------------------------------------|
 |----------------------------------------------|
 |----------------3-3/6-6-----------------------|
 |---------4--------------6-4-6-4---------------|
 |-6-6-4-6---4--6-----------------6-4-6-4-------|
 |----------------------------------------6-4-0-|

    D#m
 |----------------------------------|------------------|
 |----------------------------------|------------------|
 |----------------------------------|------------------|
 |----------------------------------|----------------4-|
 |---6-4-6-------4-6------------6-6-|-------4-6--4-6---|
 |---------0-2-0------0-2-0-2-0-----|-0-2-0------------|

   D#m
 |-------------------------------------------------------------|
 |-------------------------------------------------------------|
 |-----------3-3/6-6-----------3/6-6-6-6--3/6-6-6-6--3/6-6-6-6-|
 |---------4---------6-4-6-4-----------------------------------|
 |-6-6-4-6------------------------------------------------
Suggest correction
Give kudos to tab author, rate the tab!
1 2 3 4 5
comments
print report bad tab
guest
Wanna post a correction for this tab? Suggest correction