Oops, an error
Loading. Please wait.

Boca De Angel Tab

96 views 1 this week
no commentswrite comment
1 2 3 4 5
3 more votes to show rating
add to favorites
launch autoscroll
font size
0
reset
how to read this tab
guitar tuner
×
Best way to learn
"Boca De Angel"
Autoscroll
slow
fast
+/-
esc
set tempo
stop
La Cancion esta en "D"

D-A7-Em-A7-D

OJO!!     **El requinto va a ser el mismo**

e|-3/5-5-5-7-5-2---------|--------------------9/10--9-----|
b|-5/7-7-7-8-7-3-2-2/3-2-|-2-2-3-5-7-8-10-8-7-10/12-10----|
g|---------------2-2/4-2-|-2-2-4-6-7-9-11-9-7-------------|
d|-----------------------|--------------------------------|
a|-----------------------|--------------------------------|
E|-----------------------|--------------------------------|

e|-7-7-7-7-14-10-7--3-3/5-3------|-------------------------|
b|-8-8-8-8-15-12-8--5-5/7-5------|-2-2-3-5-7-8-10-10/12-10-|
g|-------------------------------|-2-2-4-6-7-9-11-11/12-11-|
d|-------------------------------|-------------------------|
a|-------------------------------|-------------------------|
E|-------------------------------|-------------------------|

**En 7 en e y 8 en b Pueden usar 10 y 12 respectivamente
o 12 y 12 en b y g

e|-3/5-5-5-7-5-2---------|--------------------9/10--9-----|
b|-5/7-7-7-8-7-3-2-2/3-2-|-2-2-3-5-7-8-10-8-7-10/12-10----|
g|---------------2-2/4-2-|-2-2-4-6-7-9-11-9-7-------------|
d|-----------------------|--------------------------------|
a|-----------------------|--------------------------------|
E|-----------------------|--------------------------------|

e|-10-10-10-10-14-10-7--3-3/5-3--|--3-5-7-9--7-5----|
b|-12-12-12-12-15-12-8--5-5/7-5--|--5-7-8-10-8-7----|
g|-------------------------------|------------------|
d|-------------------------------|------------------|
a|-------------------------------|------------------|
E|-------------------------------|------------------|


 D
Boca,
         A7
boca de roja,
                 D
boca de mi fantasía.
  F#m    F°
Cuándo será,
            Em    A7
boquita hermosa
                       D
que te choques con la mía.


D
Boca,
         A7
boca de ángel,

con sonrisa de pecado.
F#m     F°          Em      A7
Cómo sin decir mi nombre,
                 D        Am
he acudido a tu llamado.

Am     D7        G
Aunque sea en un murmullo,
         Ab°       D
boquita quiero escucharte,
F#m     F°           Em    A7
decirme que son tan tuyos
                     D      Am
los besos que pueda darte.

Am     D7        G
Labios de mi paraíso,
        Ab°        D
de mi destino prohibido,
F#m     F°         Em      A7
yo soy la sed que se hizo,
                     D
para apagarse en tu nido.

(D-A7-Em-A7-D-Am-D7)

e|-3/5-5-5-7-5-2---------|--------------------9/10--9-----|
b|-5/7-7-7-8-7-3-2-2/3-2-|-2-2-3-5-7-8-10-8-7-10/12-10----|
g|---------------2-2/4-2-|-2-2-4-6-7-9-11-9-7-------------|
d|-----------------------|--------------------------------|
a|-----------------------|--------------------------------|
E|-----------------------|--------------------------------|

e|-7-7-7-7-14-10-7--3-3/5-3------|-------------------------|
b|-8-8-8-8-15-12-8--5-5/7-5------|-2-2-3-5-7-8-10-10/12-10-|
g|-------------------------------|-2-2-4-6-7-9-11-11/12-11-|
d|-------------------------------|-------------------------|
a|-------------------------------|-------------------------|
E|-------------------------------|-------------------------|

**En 7 en e y 8 en b Pueden usar 10 y 12 respectivamente
o 12 y 12 en b y g


e|-3/5-5-5-7-5-2---------|--------------------9/10--9-----|
b|-5/7-7-7-8-7-3-2-2/3-2-|-2-2-3-5-7-8-10-8-7-10/12-10----|
g|---------------2-2/4-2-|-2-2-4-6-7-9-11-9-7-------------|
d|-----------------------|--------------------------------|
a|-----------------------|--------------------------------|
E|-----------------------|--------------------------------|

e|-10-10-10-10-14-10-7--3-3/5-3--|--3-5-7-9--7-5----|
b|-12-12-12-12-15-12-8--5-5/7-5--|--5-7-8-10-8-7----|
g|-------------------------------|------------------|
d|-------------------------------|------------------|
a|-------------------------------|------------------|
E|-------------------------------|------------------|


Am     D7        G
Aunque sea en un murmullo,
         Ab°       D
boquita quiero escucharte,
F#m     F°           Em    A7
decirme que son tan tuyos
                     D      Am
los besos que pueda darte.


D7 - G - Ab°- D


F#m     F°         Em      A7
yo soy la sed que se hizo,
                     D
para apagarse en tu nido.

(D-A7-Em-A7-D-Am-D7)


e|-3/5-5-5-7-5-2---------|--------------------9/10--9-----|
b|-5/7-7-7-8-7-3-2-2/3-2-|-2-2-3-5-7-8-10-8-7-10/12-10----|
g|---------------2-2/4-2-|-2-2-4-6-7-9-11-9-7-------------|
d|-----------------------|--------------------------------|
a|-----------------------|--------------------------------|
E|-----------------------|--------------------------------|

e|-7-7-7-7-14-10-7--3-3/5-3------|-------------------------|
b|-8-8-8-8-15-12-8--5-5/7-5------|-2-2-3-5-7-8-10-10/12-10-|
g|-------------------------------|-2-2-4-6-7-9-11-11/12-11-|
d|-------------------------------|-------------------------|
a|-------------------------------|-------------------------|
E|-------------------------------|-------------------------|

**En 7 en e y 8 en b Pueden usar 10 y 12 respectivamente
o 12 y 12 en b y g

e|-3/5-5-5-7-5-2---------|--------------------9/10--9-----|
b|-5/7-7-7-8-7-3-2-2/3-2-|-2-2-3-5-7-8-10-8-7-10/12-10----|
g|---------------2-2/4-2-|-2-2-4-6-7-9-11-9-7-------------|
d|-----------------------|--------------------------------|
a|-----------------------|--------------------------------|
E|-----------------------|--------------------------------|

e|-10-10-10-10-14-10-7--3-3/5-3--|--3-5-7-9--7-5----|
b|-12-12-12-12-15-12-8--5-5/7-5--|--5-7-8-10-8-7----|
g|-------------------------------|------------------|
d|-------------------------------|------------------|
a|-------------------------------|------------------|
E|-------------------------------|------------------|


Fin!!! Muchas gracias Ulises Esparza para servirles!!
El requinto lo sacamos a oído mi padre y yo así que...
Espero les guste guitarristas!!!!


Por si no conocen los acordes que llevan "(°)"
(sin parenténtesis ni comillas) son:

     Ab°     *****Sí no les gusta, no se preocupen!!!*****
                           suena bien con "G"

e|----4-----| Dedo cuatro
b|----3-----| Dedo tres
g|----4-----| Dedo dos
d|----3-----| Dedo uno
a|----*-----|
E|----*-----|

     F°      Este ya no está tan complicado xD

e|----*-----|
b|----1-----| Dedo dos
g|----*-----|
d|----*-----|
a|----2-----| Dedo tres
E|----1-----| Dedo uno
Suggest correction
Give kudos to tab author, rate the tab!
1 2 3 4 5
comments
print report bad tab
guest
You may want to rate the tab now too:
select rating
Wanna post a correction for this tab? Suggest correction