Oops, an error
Loading. Please wait.

Cuando Te Acuerdes De Mi Tab

92 views 1 this week
no commentswrite comment
1 2 3 4 5
3 more votes to show rating
add to favorites
launch autoscroll
font size
0
reset
how to read this tab
guitar tuner
×
Best way to learn
"Cuando Te Acuerdes De Mi"
Autoscroll
slow
fast
+/-
esc
set tempo
stop
HOLA, ANTES DE EMPEZAR, DESEO DEDICAR ESTA CANCION A ALGUIEN MUY, PERO MUY
ESPECIAL PARA MI, SE TRATA DE UNA CHICA KE NO PUEDO OLVIDAR, SARAHI, SON CASI
TRES AÑOS, Y AUN NO ME ACOSTUMBRO A ESTAR SIN TI..TE EXTRAÑO MUCHO, NO SE EN
DONDE TE ENCUENTRES PERO EN DONDE ESTES, OJALA KE ESTES MUY BIEN, SE KE NO
HACE FALTA KE TE DIGA LO KE SIENTO, POR KE SE KE LO SABES, KE TE AMO CON TODAS LAS
FUERZAS DE MI ALMA....TE DEDICO ESTA TRANSCRIPCION, POR KE DE UNAS SEMANAS
A LA FECHA, NO ME LA KITO DE LA MENTE, Y DE UNAS SEMANAS A LA FECHA, TAMPOCO DEJO
DE PENSAR EN TI.......TE AMO, Y AUN ME PREGUNTO KE SI MUCHO O POKITO, Y SABES KE
ME KONTESTO??, KE MUCHO, COMO DE 'AKI A LA LUNA, ES MUY CORTA LA DISTANCIA....'
CUIDATE OK??, DEBES ESTAR EN SALINA CRUZ, DE TODOS MODOS, NO NECESITO DECIR MAS,
ESTA CANCION LO DICE TODO......TE AMO..........


    G                                      Am
6|------------------------------------------------------------------
5|------------------------------------------------------------------
4|------------------------------------------------------------------
3|------------------------------------------------------------------
2|--12---12--12--12----10--9---12--12--12--12--10--9--12--10--10----
1|--10---10--10--10-----8--7---10--10--10--10---8--7--10---8---8----

    C                                                        G
6|------------------------------------------------------------------
5|------------------------------------------------------------------
4|------------------------------------------------------------------
3|------------------------------------------------------------------
2|--13---13--13--13----12--10---13--13--13--13--12--10--13--12--12--
1|--12---12--12--12----10---8---12--12--12--12--10---8--12--10--10--

  G                C             G                         C
 cuando .......mi hechale......viento.......y guardame.....que me hable....
6|-------------------------------------------------------------------------
5|-------------------------------------------------------------------------
4|-------------------------------------------------------------------------
3|-------------------------------------------------------------------------
2|-3/5-------3/5------3/5------3/5------3/5------3/5------3/5------3/5-----
1------8-7------8-7------8-7------8-7------8-7------8-7------8-7-------7-8-

               D
  ...un poco de ti.......tarareame la cancion ke mas te vibre en el...
6|-----------------------------------------------------------------
5|-----------------------------------------------------------------
4|-----------------------------------------------------------------
3|-----------------------------------------------------------------
2|-5/7---7------5/7---7-----5/7---7-----5/7---7-----5/7---7--------
1|-----5---10-------5---10------5---10------5---10------5---10-----

       G   C                   D    C                  D
  ...pecho y dale un trago derecho de recuerdo al corazon...
6|-------------------------------------------------------------------
5|-------------------------------------------------------------------
4|-------------------------------------------------------------------
3|-------------------------------------------------------------------
2|-3/5-------3/5-------5/7---7------3/5------5/7---7-----5/7---7-----
1|-----8-7-------8-7-------5---10-------8-7------5---10------5---10--


G                       C                     G
Cuando te acuerdes de mi que Dios bendiga tu mente
                          C                D
y te ayude en el presente del pasado ke te di.
                                           G
Yo te recuerdo tambien de una forma tan bonita
C                  D   C                    G  G/B
que pornada se me kita el vivir pensando en ti.

Am  D     Am                  D     G
Siempre, siempre vienes a mi pensamiento
Em                            D  Am
cuando el tiempo es demasiado lento
C               G
pienso en ti, solo en ti.
Am  D   Am                D          G
Eres el refugio donde me gusta esconderme
Em                              D Am
el lugar donde mi sentimiento duerme
C             G
junto a ti, junto a ti.

ACOMPAÑA CON ACORDES:


   Am D  Am  D  G  Em  D  Am  C  G

  'siempre, seimpre...pensamiento.....demasiedo lento...
6|-----------------------------------------------------------
5|-----------------------------------------------------------
4|-----------------------------------------------------------
3|-----------------------------------------------------------
2|------10--12--12--12--------12-----------------------------
1|-7/8----8---8---8----8-9-10-----12-10-12-10-12-10-12-13----


   pienso en ti..solo en ti'
6|----------------------------------
5|----------------------------------
4|----------------------------------
3|----------------------------------
2|-----13---------------------------
1|--14-----14-12-12---12-10-10------

 Am D  Am  D  G  Em  D  Am  C  G


Am  D     Am                  D     G
Siempre, siempre vienes a mi pensamiento
Em                            D  Am
cuando el tiempo es demasiado lento
C               G
pienso en ti, solo en ti.
Am  D   Am                D          G
Eres el refugio donde me gusta esconderme
Em                              D Am
el lugar donde mi sentimiento duerme
C             G
junto a ti, junto a ti.

Siempre, siempre vienes............etc.


OK, ESCUCHEN LA ROLA, SE PUEDE TOCAR CON DOS GUITARRAS, UNA HACE EL PUNTEO Y LA OTRA
LOS RASGUEOS SUAVES, POR ESO LES PUSE LOS ACORDES ENCIMA DE LA LETRA EN DONDE ESTA
EL TAB OK??, SALUDOS A POZA RICA, VER...A LA FACULTAD DE INGENIERIA CIVIL, AL 501-C Y
AL 301-C....Y YA SABEN, MENTADAS DE MAUSER, INVITACIONES, CITAS, CHISTES, CUENTOS,
CHISMES, UNA HERMANA O EKIS KOSA, A MI CORREO...SE CUIDAN
Suggest correction
Give kudos to tab author, rate the tab!
1 2 3 4 5
comments
print report bad tab
guest
You may want to rate the tab now too:
select rating
Wanna post a correction for this tab? Suggest correction