Oops, an error
Loading. Please wait.

El Peor De Mis Fracasos Tab

112 views 1 this week
no commentswrite comment
1 2 3 4 5
3 more votes to show rating
add to favorites
×
Save as Personal and add changes to this tab that will be seen only by you. Learn more ›
×
You can save this tab as Personal to edit and correct it or add notes. All changes will be seen only by you. Learn more »
save as personal
new!
launch autoscroll
font size
0
reset
how to read this tab
guitar tuner
Autoscroll
slow
fast
+/-
esc
set tempo
stop
    D                      Em    A7                  
No puedo remediar el sufrimiento
                 D         Em-A7
que ha causado esta separacion
    D                         Em      A7                                  
mi vida se ha quedado en un momento 
               D           A7-D
de tristeza y desesperacion
    G
la gente sin saber continuamente
                    D
me pregunta que ha sido de ti 
         A7                D           A7
Disimulo sonreir nada les puedo decir.

    D                           Em-A7
Y asi mientras el tiempo va pasando 
               D                Em-A7
Va creciendo esta tristeza en mi
     D                            Em-A7
Me muero por tenerte entre mis brazos
               D              A7-D
Pero ya hasta tu huella perdi
    G
Comprendo ahora lo poco que yo soy
                           D
Sin tu querer entre estas lagrimas
              A7                    D            D7
Que nunca se acabaran hasta que las seques tu


G                                      D         D7
Hablame si vieras cuanto bien me haria oir tu voz
G                                     D
Hazlo ya si quiera unas palabras y despues adios
                     G        A7
El alma se me esta haciendo pedazos y
    G                        D 
Te juro que mas nada puedo hacer
                                 A7
Llorando estoy el peor de mis fracasos 
        G                        D
No  no quiero ver sin ti el amanacer.


Solo?.
Es facil, solo hay que escuchar?.


|-----------------------------------------------|
|------5/7-5-7-5-7-5-7-8-8/12-10-8-8-7-5p3-5/7--|
|-----------------------------------------------|
|--7--------------------------------------------|
|-----------------------------------------------|
|-----------------------------------------------|


|-----------------------------------------------|
|------5/7-5-7-5-7-5-7-8-8/12-10-8-8-7-5p3-5/7--|
|-----------------------------------------------|
|--7--------------------------------------------|
|-----------------------------------------------|
|-----------------------------------------------|


violines?.y luego

|-------------10-7/9----------------------------|
|--10-10-8/10--------10-12----------------------|
|-----------------------------------------------|
|-----------------------------------------------|
|-----------------------------------------------|
|-----------------------------------------------|

 G
Hablame...


Fin: G-D


Otra mas de Marco Antonio, espero que 
les sirva para las peladas. Nos vemos.
Suggest correction
Give kudos to tab author, rate the tab!
1 2 3 4 5
comments
print report bad tab
guest
Wanna post a correction for this tab? Suggest correction