Oops, an error
Loading. Please wait.

La Ultima Parte Tab

38 views 1 this week
no commentswrite comment
1 2 3 4 5
3 more votes to show rating
add to favorites
×
Save as Personal and add changes to this tab that will be seen only by you. Learn more ›
×
You can save this tab as Personal to edit and correct it or add notes. All changes will be seen only by you. Learn more »
save as personal
new!
launch autoscroll
font size
0
reset
how to read this tab
guitar tuner
Autoscroll
slow
fast
+/-
esc
set tempo
stop
E|----7-9-7/9--9-11-12-12/14---14-11-11-9-9--------|
B|-10----------------------------------------12-12-|
G|-------------------------------------------------|
D|-------------------------------------------------| 
A|-------------------------------------------------|
E|-------------------------------------------------|  

E|-------9-11-11/12---12-11-11---------------------|
B|-12--------------------------12-12-----10-10-----|
G|-------------------------------------------------|
D|-------------------------------------------------|
A|-------------------------------------------------|
E|-------------------------------------------------|

E|--------9-9--------------------------------------|
B|-10--12-----12-12----12/10-10-9-9----------------|
G|-----------------------------------9/11-9--------|
D|-------------------------------------------------|
A|-------------------------------------------------|
E|-------------------------------------------------|


  

      E             B
despues de hoy, no mas palabras
        A            E
ni mas citas a escondidas
                   B
soy lo q doy y lo q siento 
          A          E       D-E
no habra nada q lo impida
          A
y se muy bien
             B                      G#m      C#m
q no he llegado justo en el mejor momento
        F#m
no seas asi
          F#                  B
como el amor se interna entre    los sentimientos
            E
todo esta bien
            B         A            E        A-B
cierra los ojos hasta q me halla marchado
      E            B         A               E          D-E
caminare con ese ritmo que tu alma me ha enseñado
    A                 B                           G#m
y por favor como ves nunca  hare lo que deberas sientes
         C#m                         A       B
me destruirias para siempre si te mientes
         E
sigue al amor.

         
           A        F#           B
el tiene todo nada mas le faltas tu
       E             G#m           C#m
mas en su vida tu seras la ultima parte
           A        F#          B
y yo sin nada todo te lo quiero dar
       E                     G#m        C#m
la diferencia es que he empezado por amarte
              A               F#          B
no hay un culpable en este triangulo de amor
       E             G#m           C#m
mas es la vida un tomar de deciciones
         A              F#        B      A-B
de mi alegria o mi tristeza tu sabras 
             E
por mis canciones.


           A        F#           B
el tiene todo nada mas le faltas tu
       E             G#m           C#m
mas en su vida tu seras la ultima parte
           A        F#          B
y yo sin nada todo te lo quiero dar
       E                     G#m        C#m
la diferencia es que he empezado por amarte
              A               F#          B
no hay un culpable en este triangulo de amor
       E             G#m           C#m
mas es la vida un tomar de deciciones
         A              F#        B      A-B
de mi alegria o mi tristeza tu sabras 
             E
por mis canciones.


Esta cancion le gusta mucho a mi hermana, y me la pideron 
hace algun tiempo, no pude sacarla antes, pero ya esta lista
SUERTE!!!!!!!!!!!!!!!!!!!!!!!
Suggest correction
Give kudos to tab author, rate the tab!
1 2 3 4 5
comments
print report bad tab
guest
Wanna post a correction for this tab? Suggest correction