Oops, an error
Loading. Please wait.

Más Que Tu Amigo Tab

103 views 1 this week
no commentswrite comment
1 2 3 4 5
3 more votes to show rating
add to favorites
×
Save as Personal and add changes to this tab that will be seen only by you. Learn more ›
×
You can save this tab as Personal to edit and correct it or add notes. All changes will be seen only by you. Learn more »
save as personal
new!
launch autoscroll
font size
0
reset
how to read this tab
guitar tuner
Autoscroll
slow
fast
+/-
esc
set tempo
stop
Mal muy mal, estas colaboraciones les falta, si van a sacar una canción
Saquen también la letra correctamente, encuentren el sentido que el artista
Quiere darle a la misma, si el Buki viera la colaboración anterior, se retuerce
Del coraje por que ni la letra se saben bien, considerando que él tiene una
Dicción clara y limpia, y corrijan esa ortografía, pueden usar Microsoft
Word, ya no hay excusa... y ya no se confíen tanto de ese que los llama
Perrines... ladra mucho pero no muerde haha


Intro E Intermedio:
    Fm                      Cm    
e|--8---------8-------------11-10-8----11-10-8h10p8---
B|----9-8-------9-8h9p8-------------8---------------8-
G|--------10------------10----------------------------
D|----------------------------------------------------
A|----------------------------------------------------
E|----------------------------------------------------
    Fm                      Cm               A#       
e|--8---------8-------------11-10-8-----------
B|----9-8-------9-8h9p8-------------8---------
G|--------10------------10--------------------
D|--------------------------------------------
A|--------------------------------------------
E|--------------------------------------------

Trompeta:
    D#                         A#
e|--11-11--15-11-15--11-10-----10-10--13-10-13--10-------
B|-------------------------13----------------------13-11-
G|-------------------------------------------------------
D|-------------------------------------------------------
A|-------------------------------------------------------
E|-------------------------------------------------------
    G#                         G7
e|---------11----11-----11-----10-------
B|--13-13-----13-----13----13-----12----
G|-----------------------------------12-
D|--------------------------------------
A|--------------------------------------
E|--------------------------------------
    D#                         A#
e|--11-11--15-11-15--11-10-----10-10--13-10-13--10-------
B|-------------------------13----------------------13-11-
G|-------------------------------------------------------
D|-------------------------------------------------------
A|-------------------------------------------------------
E|-------------------------------------------------------
    G#                         G7      
e|---------11----11-----11-----10--------10---15-15-
B|--13-13-----13-----13----13---------12------------
G|---------------------------------12---------------
D|--------------------------------------------------
A|--------------------------------------------------
E|--------------------------------------------------

          Cm
Quiero decirte 

Esta noche sin vacilación

Que ya no aguanto
                                Cm A# D#
Lo que traigo aquí en mi corazón 

                         A#     G#
Me gustas tanto, me enloqueces
                      G7      D#
Y no lo puedo ya ocultar 
                      A#     G#
En todos lados te apareces
                      G7
Como ilusión en mi mirar 

         Cm
Es un secreto
 
Que tan solo quiero compartir
 
Con esos ojos 
                              Cm A# D#
Que le han dado luz a mi vivir 

                             A#   G#
Y en esta noche no hay más luna 
                        G7    D#
Que como tú me alumbre más
                          A#    G#
Y en mi alma crece una fortuna 
                        G7
Por tanta dicha que me das

      Fm                 Cm
Te quiero, te quiero, se oye en mi pecho 
        G#    G7               Cm
Es el grande amor que me has hecho
  Fm                 Cm
Latido a latido te siento conmigo 
      G#       G7          Cm.
Yo quiero ser más que tu amigo


INTERMEDIO: Fm, Cm, Fm, Cm, A#, D# A#, G#, G7, 
            D#, A#, G#, G7

         Cm
Es un secreto
 
Que tan solo quiero compartir
 
Con esos ojos 
                              Cm A# D#
Que le han dado luz a mi vivir 
                              
                             A#   G#
Y en esta noche no hay más luna 
                        G7    D#
Que como tú me alumbre más
                          A#    G#
Y en mi alma crece una fortuna 
                        G7
Por tanta dicha que me das

      Fm                 Cm
Te quiero, te quiero, se oye en mi pecho 
        G#    G7               Cm
Es el grande amor que me has hecho
  Fm                 Cm
Latido a latido te siento conmigo 
      G#       G7          Cm.
Yo quiero ser más que tu amigo

    Fm                      Cm    
e|--8---------8-------------11-10-8----11-10-8h10p8---
B|----9-8-------9-8h9p8-------------8---------------8-
G|--------10------------10----------------------------
D|----------------------------------------------------
A|----------------------------------------------------
E|----------------------------------------------------
    Fm                      Cm               A#       
e|--8---------8-------------11-10-8----11\----
B|----9-8-------9-8h9p8-------------8---------
G|--------10------------10--------------------
D|--------------------------------------------
A|--------------------------------------------
E|--------------------------------------------

Trompeta:
    D#                         A#
e|--11-11--15-11-15--11-10-----10-10--13-10-13--10-------
B|-------------------------13----------------------13-11-
G|-------------------------------------------------------
D|-------------------------------------------------------
A|-------------------------------------------------------
E|-------------------------------------------------------
    G#            G7        Cm
e|--------10--11--10--11-10----------||
B|--13-13-------------------13---13--||
G|-----------------------------------||
D|-----------------------------------||
A|-----------------------------------||
E|-----------------------------------||
Suggest correction
Give kudos to tab author, rate the tab!
1 2 3 4 5
comments
print report bad tab
guest
Wanna post a correction for this tab? Suggest correction