Oops, an error
Loading. Please wait.

Más Que Tu Amigo Bass Tab

290 views 6 this week
no commentswrite comment
1 2 3 4 5
3 more votes to show rating
add to favorites
launch autoscroll
font size
0
reset
guitar tuner
×
Best way to learn
"Más Que Tu Amigo"
Autoscroll
slow
fast
+/-
esc
set tempo
stop
que puedo decir
no hay cancion de este tipo que no me guste
todas son re buenas
Intro
E|--------|--3----3--|---------|--3------|
A|---3--3-|-3--3-3-3-|--3----3-|-3--3-1--|
D|--3--3--|----------|-3--3-3--|---------|
G|--------|----------|---------|---------|

hay mama
E|----6--6--|---1--1--|-4-04-04-|-3-03-|----|
A|--6--6--6-|-1--1--1-|---------|------|-1--|
D|----------|---------|---------|------|----|
G|----------|---------|---------|------|----|

E|----6--6--|---1--1--|-4-04-04-|-3---33-|
A|--6--6--6-|-1--1--1-|---------|--5-5---|
D|----------|---------|---------|---5----|
G|----------|---------|---------|--------|

quiero decirte
    x7
E|-------|-------6--6--|---1--1--|-4-04-04-|-3-03-|----|
A|--3-6--|-3-1-6--6--6-|-1--1--1-|---------|------|-1--|
D|-----5-|-------------|---------|---------|------|----|
G|-------|-------------|---------|---------|------|----|

E|----6--6--|---1--1--|-4-04-04-|-3---33-|
A|--6--6--6-|-1--1--1-|---------|--5-5---|
D|----------|---------|---------|---5----|
G|----------|---------|---------|--------|

Es un secreto
    x7
E|-------|-------6--6--|---1--1--|-4-04-04-|-3-03-|----|
A|--3-6--|-3-1-6--6--6-|-1--1--1-|---------|------|-1--|
D|-----5-|-------------|---------|---------|------|----|
G|-------|-------------|---------|---------|------|----|

E|----6--6--|---1--1--|-4-04-04-|-3---333-|
A|--6--6--6-|-1--1--1-|---------|--5-5----|
D|----------|---------|---------|---5-----|
G|----------|---------|---------|---------|

Te quiero
E|-----------|---3--33--|-3-03-003-|---3-------|
A|----3--33--|-3--3---3-|----------|-3--3-55---|
D|--3--3---3-|----------|----------|--------2--|
G|-----------|----------|----------|-----------|

latido
E|-----------|---3--33--|-3-03-003-|---3-----|
A|----3--33--|-3--3---3-|----------|-3--333--|
D|--3--3---3-|----------|----------|--5------|
G|-----------|----------|----------|---------|

Intro
E|--------|--3----3--|---------|--3------|
A|---3--3-|-3--3-3-3-|--3----3-|-3--3-1--|
D|--3--3--|----------|-3--3-3--|---------|
G|--------|----------|---------|---------|

hay mama
E|----6--6--|---1--1--|-4-04-04-|-3-03-|----|
A|--6--6--6-|-1--1--1-|---------|------|-1--|
D|----------|---------|---------|------|----|
G|----------|---------|---------|------|----|

E|----6--6--|---1--1--|-4-04-04-|-3---33-|
A|--6--6--6-|-1--1--1-|---------|--5-5---|
D|----------|---------|---------|---5----|
G|----------|---------|---------|--------|

Es un secreto
    x7
E|-------|-------6--6--|---1--1--|-4-04-04-|-3-03-|----|
A|--3-6--|-3-1-6--6--6-|-1--1--1-|---------|------|-1--|
D|-----5-|-------------|---------|---------|------|----|
G|-------|-------------|---------|---------|------|----|

E|----6--6--|---1--1--|-4-04-04-|-3---333-|
A|--6--6--6-|-1--1--1-|---------|--5-5----|
D|----------|---------|---------|---5-----|
G|----------|---------|---------|---------|

Te quiero
E|-----------|---3--33--|-3-03-003-|---3-------|
A|----3--33--|-3--3---3-|----------|-3--3-55---|
D|--3--3---3-|----------|----------|--------2--|
G|-----------|----------|----------|-----------|

latido
E|-----------|---3--33--|-3-03-003-|---3-----|
A|----3--33--|-3--3---3-|----------|-3--333--|
D|--3--3---3-|----------|----------|--5------|
G|-----------|----------|----------|---------|

Intro
E|--------|--3----3--|---------|--3------|
A|---3--3-|-3--3-3-3-|--3----3-|-3--3-1--|
D|--3--3--|----------|-3--3-3--|---------|
G|--------|----------|---------|---------|

E|----6--6--|---1--1--|-4-04-3-|-3-------|---------|
A|--6--6--6-|-1--1--1-|--------|--5----3-|-3-6-33--|
D|----------|---------|--------|---3/5---|--5------|
G|----------|---------|--------|---------|---------|

atte. miauricio gatolar
Suggest correction
Give kudos to tab author, rate the tab!
1 2 3 4 5
comments
print report bad tab
guest
You may want to rate the tab now too:
select rating
Wanna post a correction for this tab? Suggest correction