Oops, an error
Loading. Please wait.

Mi Eterno Amor Secreto Tab

138 views 1 this week
no commentswrite comment
1 2 3 4 5
3 more votes to show rating
add to favorites
launch autoscroll
font size
0
reset
how to read this tab
guitar tuner
Autoscroll
slow
fast
+/-
esc
set tempo
stop
Help us to improve Ultimate-Guitar.com Take our survey!
×
pex banda sta rola se la kiero dedicar a


      "MARINA BLANCO RAMIREZ "

"Ya lo ves los dos nos equivocamos
es mejor que otros caminos sigamos
Y que esta despedida sea por el bien de todos
inventaré algún modo para vivir sin tí"


INTRO:
   C                               G
E---------------------------------------------------
A---------------------------------------------------
D-10-10-------10-10-------10-10--------10-9-9-9-----
G------9-10-9------9-10-9------9-10-9-7--------7-9-7
B---------------------------------------------------
e---------------------------------------------------

            F             G/C            G
E---------------------------------------------------
A---------------------------------------------------
D-9-9------10-9-7-7-7--7-9-10-9-7--------10---------
G----7-9-7------------------------10-9-7------------
B---------------------------------------------------
e---------------------------------------------------


C/C7                                 G
Voy a hacer de cuenta que no exististe
F                 C            G
tu de mi olvida que un día me viste

C / C*                           G
Ya lo ves los dos nos equivocamos
F                           C
es mejor que otros caminos sigamos
               G                        C
Y que esta despedida sea por el bien de todos
                 G                 C     G
inventaré algún modo para vivir sin tí

CORO:

C     /  C7                      F
Te juro que nadie mas te amará como yo
            G             C/C7
mas hoy por tí mi pecho arde
                    G
porque me duele decirte que
 F/G             C   G
a ti he llegado tarde

C                                     C7           F
Aunque no te vuelva a ver quiero que sepas que haré
             G         C / C7
por tí un viaje sin boleto
                           G
y en la distancia siempre serás
   F/G                  C
mi eterno amor secreto

VERSO:(se toca el intro)

"Porque entre nosotros no hay distancia, ni tiempo
ni espacio, será simpre eterno nuestro amor."

coro:

te juro que nadia mas.........


final

  C                               G
E---------------------------------------------------
A---------------------------------------------------
D-10-10-------10-10-------10-10--------10-9-9-9-----
G------9-10-9------9-10-9------9-10-9-7--------7-9-7
B---------------------------------------------------
e---------------------------------------------------

            F             G/C            G
E---------------------------------------------------
A---------------------------------------------------
D-9-9------10-9-7-7-7--7-9-10-9-7--------10---------
G----7-9-7------------------------10-9-7------------
B---------------------------------------------------
e---------------------------------------------------
Suggest correction
Give kudos to tab author, rate the tab!
1 2 3 4 5
comments
print report bad tab
guest
You may want to rate the tab now too:
select rating
Wanna post a correction for this tab? Suggest correction