Oops, an error
Loading. Please wait.

Mi Mayor Sacrificio Tab

53 views 1 this week
no commentswrite comment
1 2 3 4 5
3 more votes to show rating
add to favorites
launch autoscroll
font size
0
reset
how to read this tab
guitar tuner
×
Best way to learn
"Mi Mayor Sacrificio"
Autoscroll
slow
fast
+/-
esc
set tempo
stop
AQUI LA TABLATURA DE ESTA HERMOSA CANCION PRACTIKENLA MUCHO
PARA QUE PUEDEN DOMINARLA.. EXITOS A TODOS

e ----------------------------8----10--10--8---12------
B ---5--6--8--10--11--11--10--10---11--11--10--13------
G ---5--7--9--10--12--12--10---------------------------
D -----------------------------------------------------
A -----------------------------------------------------
E -----------------------------------------------------

e ---------10-12-13--10h11-----|-----------------------
B ---11-13-----------------11--|-----------------------
G -----------------------------|-----------------------
D -----------------------------|-----------------------
A -----------------------------|-----------------------
E -----------------------------|-----------------------

e ---------10-13-13-12--10--10--8---6--6--5--8---------
B ---11-13--------------11--11--10--8--8--6--10--------
G -----------------------------------------------------
D -----------------------------------------------------
A -----------------------------------------------------
E -----------------------------------------------------
Suggest correction
Give kudos to tab author, rate the tab!
1 2 3 4 5
comments
print report bad tab
guest
You may want to rate the tab now too:
select rating
Wanna post a correction for this tab? Suggest correction