Oops, an error
Loading. Please wait.

O Me Voy O Te Vas Tab

357 views 3 this week
no commentswrite comment
1 2 3 4 5
3 more votes to show rating
add to favorites
×
Save as Personal and add changes to this tab that will be seen only by you. Learn more ›
×
You can save this tab as Personal to edit and correct it or add notes. All changes will be seen only by you. Learn more »
save as personal
new!
launch autoscroll
font size
0
reset
how to read this tab
guitar tuner
Autoscroll
slow
fast
+/-
esc
set tempo
stop
olash banda  soy edgar de toluca,a la otra vesion solo le falta esto
 ahi se los paso se lo dedico a karla que le gusta muchop esa rola si
 kieren + rolas o requintos
o solos o lo q sea pues diganme y se los corro a ver que les parc
mi mail es ed_che19@ o 


INTRO X 2

E----------------------------------------------------------
A----------------------------------------------------------
D----------------------------------------------------------
G----------------------------------------------------------
B-----------12-------------------12---12---12-9------------
E?9/11?11?9----9-11-9-11-11-11-9----9----9-----------------


Que debia ser como este y como aquel............


E---------------------------------
A---------------------------------
D---------------------------------
G---------------------------------
B---------------5h6/7-7-----------
e---6-6-6-6-4-4-------------------


o me voy a t vas.............

Solo: (es el del violín pero en la guitarra)

E---------------------------------------------------------
A---------------------------------------------------------
D-9-11----------------------------------------------------
G------8-9/11-11-11------------11---7-8-11------------11--
B-------------------9-11-12-11----9--------9-11-12-11-----
e---------------------------------------------------------


E--------------------------------------------------------
A--------------------------------------------------------
D--------------------------------------------------------
G----8-9-11----------------------------------------------
B--9--------9-11-12---12---------------------------------
e-------------------9------------------------------------
Suggest correction
Give kudos to tab author, rate the tab!
1 2 3 4 5
comments
print report bad tab
guest
Wanna post a correction for this tab? Suggest correction