Oops, an error
Loading. Please wait.

Recuerdos, Tristeza Y Soledad Tab

61 views 1 this week
no commentswrite comment
1 2 3 4 5
3 more votes to show rating
add to favorites
launch autoscroll
font size
0
reset
how to read this tab
guitar tuner
×
Best way to learn
"Recuerdos, Tristeza Y Soledad"
Autoscroll
slow
fast
+/-
esc
set tempo
stop
   Bueno esta es la primera cancion que subo .Este requinto
 es el inicial,va con teclado pero con guitarra es asi.

SE OYE LA BATERIA Y SIGUE....

 e.-----------------------------------------------
 B.--5-7-8-7-5-5---5-7-10-8-7-5-8-----------------
 G.-7---------7---7-------------------------------


 e.-----------------------------------------------
 B.------5-7-5--------5-7-------------------------
 G.--6-7-------7-6-7------------------------------


 e.-----------------------------------------------
 B.--5-7-8-7-5-5----5-7-10-8-7-5-8----------------
 G.-7---------7---7-------------------------------

 e.-----------------------------------------------
 B.-----5-7-5--------5----------------------------
 G.--6-7-------7-6-7---7--------------------------

   Este requinto se repite en medio de la cancion
 y despues va el coro.

   Espero que les gusta ,voten y alguna duda mi correo
 es victor_hg_intel@
Suggest correction
Give kudos to tab author, rate the tab!
1 2 3 4 5
comments
print report bad tab
guest
You may want to rate the tab now too:
select rating
Wanna post a correction for this tab? Suggest correction