Oops, an error
Loading. Please wait.

Si No Te Hubieras Ido Bass Tab

version 1
version 1

Whole song

Interactive

186 views 1 this week
no commentswrite comment
1 2 3 4 5
3 more votes to show rating
add to favorites
launch autoscroll
font size
0
reset
guitar tuner
Autoscroll
slow
fast
+/-
esc
set tempo
stop
Help us to improve Ultimate-Guitar.com Take our survey!
×
Hola soy nuevo por lo tanto esta es mi primera colaboración!!!
Espero q les sirva...La afinación es normal...Aqui solo les doy
la base...ustedes pongale los adornos que les agraden...

Introducción

G -----------------------------------------
D -----------------------------------------
A -----------------------------------------  x2
E -5---5-5----5---5-5----1---1-1----1---1-1

Primera Parte del Verso

G -----------------------------------------
D -----------------------------------------
A -----------------------------------3--3-3  
E -5---5-5----5---5-5----1---1-3---3-------

G -----------------------------------------
D -----------------------------------------
A -3---3-7--7----------------------3---3-3-
E -------------5--5-5--1--1-3---3--------

G -----------------------------------------
D -----------------------------------------
A -3---3-3------------------------3---3-7-- 
E ------------3---3-3---3---3-3------------

G -----------------------------------------
D -----------------------------------------
A -7-------------------------------3---3-3- 
E ----5---5-5---1---1-1---3---3-3----------

G -----------------------------------------
D -----------------------------------------
A -3---3-7--7----------------------3---3-3- 
E ------------5--5-5---1--1-3---3----------

G -----------------------------------------
D -----------------------------------------
A -3--3-7--7-----------------------3---3-3- 
E -----------5--5-5----1--1--3---3---------

G -----------------------------------------
D -----------------------------------------
A -3---3-3------------------------3---3-7- 
E -----------3---3-3---3---3-3------------

G -----------------------------------------
D -----------------------------------------
A -7---------------------------------3--3-3
E -----5---5-5---1---1-1---3---3-3---------

G ---------
D ---------
A -3---3-3-
E ---------

Coro 

G -----------------------------------------
D -----------------------------------------
A ---------------------3---3-3---3---3-3--- x2
E -3---3-3---3---3-3-----------------------

G -----------------------------------------
D -----------------------------------------
A ---------------------3---3-7--7----------
E -3---3-3---3---3-3---------------5---5-5-

G -----------------------------------------
D -----------------------------------------
A ---------------------3---3-3---3---3-3--- 
E -1---1-1---3---3-3-----------------------

G -----------------------------------------
D -----------------------------------------
A ---------------------3---3-3---3---3-3--- x2
E -3---3-3---3---3-3-----------------------

G -----------------------------------------
D -----------------------------------------
A ---------------------3---3-7--7----------
E -3---3-3---3---3-3---------------5---5-5-

G ------------------------------
D ------------------------------
A ---------------------3---3-3--
E -1---1-1---3---3-3------------

Segunda Parte del Verso

G -----------------------------------------
D -----------------------------------------
A -3---3-7--7----------------------3---3-3- 
E ------------5--5-5---1--1-3---3----------

G -----------------------------------------
D -----------------------------------------
A -3--3-7--7------------------------3---3-3 
E ------------5--5-5---1--1--3---3---------

G -----------------------------------------
D -----------------------------------------
A -3---3-3------------------------3---3-7- 
E -----------3---3-3---3---3-3------------

G -----------------------------------------
D -----------------------------------------
A -7---------------------------------3--3-3
E -----5---5-5---1---1-1---3---3-3---------

G ---------
D ---------
A -3---3-3-
E ---------

Segundo Coro

G -----------------------------------------
D -----------------------------------------
A ---------------------3---3-3---3---3-3--- x2
E -3---3-3---3---3-3-----------------------

G -----------------------------------------
D -----------------------------------------
A ---------------------3---3-7--7----------
E -3---3-3---3---3-3---------------5---5-5-

G -----------------------------------------
D -----------------------------------------
A ---------------------3---3-3---3---3-3--- 
E -1---1-1---3---3-3-----------------------

G -----------------------------------------
D -----------------------------------------
A ---------------------3---3-3---3---3-3--- x2
E -3---3-3---3---3-3-----------------------

G -----------------------------------------
D -----------------------------------------
A ---------------------3---3-7--7----------
E -3---3-3---3---3-3---------------5---5-5-

G -----------------------------------------
D -----------------------------------------
A ---------------------3---3-3---3---3-3--- 
E -1---1-1---3---3-3-----------------------

G -----------------------------------------
D -----------------------------------------
A ---------------------3---3-3---3---3-3--- x2
E -3---3-3---3---3-3-----------------------

G -----------------------------------------
D -----------------------------------------
A ---------------------3---3-7--7----------
E -3---3-3---3---3-3---------------5---5-5-

G -----------------------------------------
D -----------------------------------------
A ---------------------3---3-3---3---3-3--- 
E -1---1-1---3---3-3-----------------------

Esa es toda la canción...Si encuentran cualquier
error mandenme un mail a franciscombarrera@
Suggest correction
Give kudos to tab author, rate the tab!
1 2 3 4 5
comments
print report bad tab
guest
You may want to rate the tab now too:
select rating
Wanna post a correction for this tab? Suggest correction