Oops, an error
Loading. Please wait.

Si No Te Hubieras Ido Tab

version 3
version 3

Whole song

Interactive

78 views 1 this week
no commentswrite comment
1 2 3 4 5
3 more votes to show rating
add to favorites
launch autoscroll
font size
0
reset
how to read this tab
guitar tuner
×
Best way to learn
"Si No Te Hubieras Ido"
Autoscroll
slow
fast
+/-
esc
set tempo
stop
bueno rebice las demas tablaturas y la verdad
 estan bien pero les falta algo y aqui esta,
 esta lindicima cancion que se la dedico a
lupita con todo mi corazon


INTRO:
                 Am                  F
e-----------------0-------------------1--
B-------------1---0-----0/1--0--------3--
G------0---2------2------------2--0---3--
D---2-------------2-------------------2--
A-----------------1-------------------0--
E-----------------0-------------------0--

                 Am                  F
e-----------------0-------------------1--
B-------------1---0-----0/1--0--------3--
G------0---2------2------------2--0---3--
D---2-------------2-------------------2--
A-----------------1-------------------0--
E-----------------0-------------------0--
                 Am
e-----------------0
B-------------1---0
G------0---2------2
D---2-------------2
A-----------------1
E-----------------0


Am                  F         G         C     rif 1
TE EXTRAÑO MAS QUE NUNCA Y N0 SE QUE HACER
Am                 F         G   C
DESPIERTO Y TE RECUERDO AL AMANECER   rif 2
G                              C       E7
ESPERA OTRO DIA POR VIVIR SIN TI
              Am          G
EL ESPEJO NO MIENTE
              F      G
ME VEO TAN DIFERENTE
                C
ME HACES FALTA TU  rif 1


Am             F            G    C
LA GENTE PASA Y PASA SIEMPRE TAN IGUAL  rif 1
Am               F        G       C
EL RITMO DE LA VIDA ME PARECE MAL      rif 2
G                                 C      E7  Am G
ERA TAN DIFERENTE CUANDO ESTABAS TU
F             G                       C  rif 2
SI QUE ERA DIFERENTE CUANDO ESTABAS TU


G                                   C       G C  rif 2
NO HAY NADA MAS DIFICIL QUE VIVIR SIN TI
G                                   C      G C rif 2
SUFRIENDO EN LA ESPERA DE VERTE LLEGAR
G                                  C
EL FRIO DE MI CUERPO PREGUNTA POR TI
   E7          Am     G
Y NO SE DONDE ESTAS
 F                   G          C
SI NO TE HUBIERAS IDO SERIA TAN FELIZ...(X2)


Am             F            G    C
LA GENTE PASA Y PASA SIEMPRE TAN IGUAL  rif 1
Am               F        G       C
EL RITMO DE LA VIDA ME PARECE MAL    rif 2
G                                 C      E7   Am  G
ERA TAN DIFERENTE CUANDO ESTABAS TU
F               G                    C
SI QUE ERA DIFERENTE CUANDO ESTABAS TU   rif 2


G                                   C       G C  rif 2
NO HAY NADA MAS DIFICIL QUE VIVIR SIN TI
G                                   C      G C rif 2
SUFRIENDO EN LA ESPERA DE VERTE LLEGAR
G                                  C
EL FRIO DE MI CUERPO PREGUNTA POR TI
   E7          Am     G
Y NO SE DONDE ESTAS
 F                   G          C
SI NO TE HUBIERAS IDO SERIA TAN FELIZ...(X2)

rif 1 :
      C          E7
E----------------------------------
A-----3-----------2----------------
D-------2-----------0--------------
G---------0-----------1------------
B-----------1-----------0----------
e----------------------------------

rif 2 :
E-----------------
A-----------------
D-----------------
G--------2--0-----
B-1/3--1----------
e-----------------
Suggest correction
Give kudos to tab author, rate the tab!
1 2 3 4 5
comments
print report bad tab
guest
You may want to rate the tab now too:
select rating
Wanna post a correction for this tab? Suggest correction