Oops, an error
Loading. Please wait.

Si Te Pudiera Mentir Tab

34 views 1 this week
no commentswrite comment
1 2 3 4 5
3 more votes to show rating
add to favorites
launch autoscroll
font size
0
reset
how to read this tab
guitar tuner
×
Best way to learn
"Si Te Pudiera Mentir"
Autoscroll
slow
fast
+/-
esc
set tempo
stop
intro:
 
 (la tablatura es del instrumento de viento pero para que la
  toquen en guitarra) 

 e|--14--12-14-10-12----10h12p10-9-10-9-10--7-10-
 B|----------------------------------------------
 G|----------------------------------------------
 D|----------------------------------------------
 A|----------------------------------------------
 E|----------------------------------------------


D         F#m     Bm
Si te pudiera mentir
          D
te diria que aqui
             F#m        Bm
todo va marchando muy bien
D                  D7
 pero no es asi...

      G                     A
Esta casa es solo un pensamiento
   Bm
que me habla de ti
          G                  A
y es tu voz como este mismo viento
     D                G-A
que hoy viene hacia mi...

   D         F#m      Bm
Cada vez me duele perder
           D
un minuto mas
           F#m       Bm
aqui sin poder entender
D                      D7
 porque tu no estas...

         G                 A
Estas tardes oscuras me asustan
      Bm
y no me hacen bien
    G                   A
caminar en sentido contrario
D                    D7
 a lo que es mi eden...


G          A                     D    D7
 A veces creo oir, que me necesitas
G               A             Bm         A-D
 y alguna que otra vez, siento tu mirar
G               A
 he hecho unos cambios en mi
     F#7              Bm
 pensando si te gustaran
G        A                    Bm   D7
 que imposible es dejarte de amar

G              A            D     D7
 No existe formula para olvidarte
G           A                   Bm   A-D-G
 eres mi musica y mi mejor cancion
G              A
 se que no hay un corazon
      F#7                Bm
 que sienta lo mismo por ti
G                 A
 que este que implora hoy regreses
   Bm
 A [ch]E[/ch]

 e|--13/14-12-10-12-14-10--------------------------------------
 B|------------------------12-10-7-10-7-10-7-10/12---10--------
 G|-----------------------------------------------------11-9-7-
 D|------------------------------------------------------------
 A|------------------------------------------------------------
 E|------------------------------------------------------------

 e|--13/14-12-10-12-14-10--------------------------------------
 B|------------------------12-10-7-10-7-10-7-10/12-------------
 G|------------------------------------------------------------
 D|------------------------------------------------------------
 A|------------------------------------------------------------
 E|------------------------------------------------------------


G              A             D       D7
 No existe formula para olvidarte
G           A                   Bm   A-D-G
 eres mi musica y mi mejor cancion
G              A
 se que no hay un corazon
      F#7                 Bm
 que sienta lo mismo por ti
G                        A
 que este que implora hoy regreses 
   Bm
 A [ch]E[/ch]...


Esta transcripcion esta un poco mas exacta que las anteriores, 
pero se aceptan criticas......
Suggest correction
Give kudos to tab author, rate the tab!
1 2 3 4 5
comments
print report bad tab
guest
You may want to rate the tab now too:
select rating
Wanna post a correction for this tab? Suggest correction