Oops, an error
Loading. Please wait.

Tu Hombre Perfecto Tab

79 views 1 this week
no commentswrite comment
1 2 3 4 5
3 more votes to show rating
add to favorites
×
Save as Personal and add changes to this tab that will be seen only by you. Learn more ›
×
You can save this tab as Personal to edit and correct it or add notes. All changes will be seen only by you. Learn more »
save as personal
new!
launch autoscroll
font size
0
reset
how to read this tab
guitar tuner
Autoscroll
slow
fast
+/-
esc
set tempo
stop
q onda ai les paso sto del sr. marco, el otro intro
la neta sta mal, y pues yo se lso mando bien
chequenlo ai me avisan como les sono, y c la kiero
dedicar a JANISS  el hombre perfecto no existe
y nunca a ti llegara

INTRO:


D------------------------------------------------
G------------------------------------------------
B------12-14-10-12-14--------------------12-11h12
e-11/12--------------11-11h12-12-11h12p11--------


D-----------------------------------------------
G--------11-------------------------------------
B-10-9-10--9-10-12-14-12-10-9-------------------
e-----------------------------------------------

E
A [ch]A[/ch] medida
           A           B            E
Muy pocas cosas en la vida encontraras
E
Y con el tiempo
            A            B            E
Sin darte cuenta en su momento lo veras
  B
A [ch]A[/ch] medida
                                    C#
Solo hallaras lo que cabe en tu corazon
            E
Buscando afuera
          A            B          E
Es mas certera una triste desilusion.

   E
Creo que venimos
        A         B            E
A este mundo nada mas para aprender
  E
Y sin pensarlo
             A            B               E
Tarde o temprano alguien te lo hara entender.

           B
Con tu permiso
                                 C#m
Con mis defectos a otro lado ya me voy
             E
Mas nunca olvides
           A            B              E
Que yo te ame con lo bueno y malo que soy.
  E               G#      C#m
No hay hombre perfecto no hay
        A       B       E
Como el que buscaste mi
 E             G#         C#m
Perfecta es la lluvia que cae
   A            B         E
Y no lo que tu has de elegir
    A                     B
Como inventaste que era yo
C#m               G#
Esa infalible solucion
 A                             B       E
Que haria feliz por siempre a tu corazon.
 E             G#     C#m
Tu hombre perfecto sera
    A          B        E
El que nunca a ti llegara.

solo: del violin

D------------------------------------------------
G------------------------------------------------
B------12-14-10-12-14--------------------12-11h12
e-11/12--------------11-11h12-12-11h12p11--------


D-----------------------------------------------
G--------11-------------------------------------
B-10-9-10--9-10-12-14-12-10-9-------------------
e-----------------------------------------------
Suggest correction
Give kudos to tab author, rate the tab!
1 2 3 4 5
comments
print report bad tab
guest
Wanna post a correction for this tab? Suggest correction