Oops, an error
Loading. Please wait.

Amor Sin Condición Chords

version 3
version 3

Whole song

Interactive

39 views 1 this week
no commentswrite comment
1 2 3 4 5
3 more votes to show rating
add to favorites
launch autoscroll
font size
0
reset
transpose
0
reset
simplify chords
display chords
guitar tuner
Autoscroll
slow
fast
+/-
esc
set tempo
stop
Help us to improve Ultimate-Guitar.com Take our survey!
×
---Intro---

Em7(9)
e--------------------------------------
B--------------------------------------
D--------------------------------------
A---5-----7-----10------10-10----------
E-3---3-5---5-7----7-8---8-8-----------

G Am7 G/B C x4

    G                       D
De tal manera al Mundo tu amaste,
                        Em            C           D
que hasta tu vida entregaste, tu costado abierto fue.
    G                        D
Y fueron esas gotas de tu sangre,
                     Em            C              D
que mi corazón limpiaron, me hiciste un nuevo ser.

G                 D
Gracias, te doy gracias,
        Em7            C          D
por tu amor sin condición en esa cruz.
 G               D
Gracias, te doy gracias,
          Em7           C           D
por tu perdón, la salvación en esa cruz.

 G        D          G/B       C
Amor sin condición, amor sin condición. (x2)(aqui tiene 8 tiempos)


e--------------------------------------
B--------------------------------------
D--------------------------------------
A---5-----7-----10------10-10----------
E-3---3-5---5-7----7-8---8-8-----------(esto lo hacen al final)
Suggest correction
Give kudos to tab author, rate the tab!
1 2 3 4 5
comments
print report bad tab
guest
You may want to rate the tab now too:
select rating
Wanna post a correction for this tab? Suggest correction