Oops, an error
Loading. Please wait.

Amor Sin Condición Tab

version 1
version 1

Whole song

Interactive

173 views 1 this week
no commentswrite comment
1 2 3 4 5
3 more votes to show rating
add to favorites
launch autoscroll
font size
0
reset
how to read this tab
guitar tuner
×
Best way to learn
"Amor Sin Condición"
Autoscroll
slow
fast
+/-
esc
set tempo
stop
Saludos a todo mis amigos en Dios.
Ivan, Alvaro, Julian, Marco, Jorge y Sandro los estimo mucho, y espero
q Dios los bendiga en abundante.

Pre Intro:
Bajo
G/---------------------/
D/---------------------/x16
A/-5h7-7---------------/
E/---------------------/
Bajo y Guitarra
G/---------------------/
D/---------------------/x4
A/-7-7-7-5-7-----------/
E/---------------------/

Intro: G Am7 Bm/G C      x3   x4
G/-------------------------/----/
D/-------------------------/----/
A/---5--------------10-10--/-10-/
E/-3---3-5-7-5-7-8--8--8---/-8--/

Verso:
   G                         D
De tal manera al mundo tu amaste
                       Em
que hasta tu vida entregaste
       C             D                  Riff D/-7/9-7-5-7p5----/
Tu costado abierto fue                       A/-------------7--/
    G                        D
y fueron esas gotas de tu sangre
                    Em
que mi corazon limpiaron
       C             D
me hiciste un nuevo ser

Pre Coro:
  G               D
Gracias, te doy gracias
         Em7           C           D
por tu amor sin condicion en esa cruz
  G               D
Gracias, te doy gracias
         Em7           C           D
por tu perdon la salvacion en esa cruz

Coro:
  G        D
//Amor sin condicion
  Bm/G     C
Amor sin condicion//

Intermedio:
     x4            1 y 2.         3.         4.
G/-----------/--------------/------------/---------/
D/-----------/-7/9-7-5-7p5--/-5-5--7/9/7-/---------/
A/-7-7-7-5-7-/------------7-/-7-7--7/9/7-/-7/14----/
E/-----------/--------------/------------/---------/

Verso.
Pre Coro.
Coro.

Musical: G Am7 Bm/G C
e/-----------------------------/----------------------------------------/
B/-------------4-4-4-5-5-5-7-7-/-8-8-8-10-10-10-12-12-12-13-13-13-15-15-/
G/-5-5-5-7-7-7-----------------/----------------------------------------/
D/-----------------------------/----------------------------------------/
A/-----------------------------/----------------------------------------/
E/-----------------------------/----------------------------------------/

e/------------------/-------------------------------------/----/
B/-15-12-13-10-8-10-/-15-13-12-13-12-10-12-10-8-10p8-10-12/-13-/
G/------------------/-------------------------------------/----/
D/------------------/-------------------------------------/----/
A/------------------/-------------------------------------/----/
E/------------------/-------------------------------------/----/

Final: la misma de la intro, termina en C


Seb@stian Martinez
Ministerios Vino Nuevo
Suggest correction
Give kudos to tab author, rate the tab!
1 2 3 4 5
comments
print report bad tab
guest
You may want to rate the tab now too:
select rating
Wanna post a correction for this tab? Suggest correction