Oops, an error
Loading. Please wait.

Amor Sin Condición Tab

version 2
version 2

Whole song

Interactive

77 views 1 this week
no commentswrite comment
1 2 3 4 5
3 more votes to show rating
add to favorites
×
Save as Personal and add changes to this tab that will be seen only by you. Learn more ›
×
You can save this tab as Personal to edit and correct it or add notes. All changes will be seen only by you. Learn more »
save as personal
new!
launch autoscroll
font size
0
reset
how to read this tab
guitar tuner
Autoscroll
slow
fast
+/-
esc
set tempo
stop
  BUENO ESTA CANCION VIENE DIRECTO LA IGLESIA REY DE REYES
 CAMPECHE UN SALUDO A TODOS LOS JOVENES DEL MINISTERIO DE ALABANZA


   Espero les guste

   intro


E------------------------------------
B------------------------------------
G------------------------------------
D------------------------------------
A---5-7-7-5-7------------------------ X4
E------------------------------------


E--------------------------------
B--------------------------------
G--------------------------------
D--------------------------------
A---5---7---9---10--/--10--10----X4
E---3---5---7---8---/--8----8----


  RIFF

   Del tal manera al mundo tu amaste ...
E-----------------------
B-----------------------
G----4------------------
D----5------------------
A----5------------------
E----3------------------

   Que hasta tu vida entregaste ...
E-----------------------
B-----------------------
G----7------------------
D----7------------------
A----5------------------
E-----------------------

   Tu costado abierto fue ...
E-------------------------
B-------------------------
G----9-------5-------7----
D----9-------5-------7----
A----7-------3-------5----
E-------------------------

ESTOS MISMOS ACORDES SE REPITEN CUANDO ES LA SEGUNDA ESTROFA
CANTA
Y FUERON ESAS GOTAS DE TU SANGRE ...

IGUAL SE REPITEN CUANDO CANTA
GRACIAS TE DOY GRACIAS POR TU AMOR ...


  Amor sin condicion...
E-----------------------
B-----------------------
G----4--------7---------
D----5--------7---------
A----5--------5---------
E----3------------------

  Amor sin condicion ...
E-----------------------
B-----------------------
G----4---------5--------
D----4---------5--------
A----2---------3--------
E-----------------------

Intermedio

Intermedio:

E/-----------/--------------/------------/---------/
B/-----------/--------------/------------/---------/
G/-----------/--------------/------------/---------/
D/-----------/-7/9-7-5-7p5--/-5-5--7/9/7-/---------/
A/-5-7-7-5-7-/------------7-/-7-7--7/9/7-/-7/14----/
E/-----------/--------------/------------/---------/

solo
Vamos ...

E------------------------------------
B--15-15-----------------------------
G---------12-12--14------------------
D--------------------12--------------
A------------------------------------
E------------------------------------

E------------------------------------
B--15-15-------------13--------------
G---------12-12--14------------------
D------------------------------------
A------------------------------------
E------------------------------------

E--15-15-----------------------------
B--------12-12-13-13--15------------
G------------------------------------
D------------------------------------
A------------------------------------
E------------------------------------

E--15-15-------------15--------------
B--------12-12--13-------------------
G------------------------------------
D------------------------------------
A------------------------------------
E------------------------------------

E--20-20-----------------------------
B---------19-19-20-20----------------
G----------------------19------------
D------------------------------------
A------------------------------------
E------------------------------------

E------------------------------------
B---------19-19-20-----20------------
G---19-19----------------------------
D------------------------------------
A------------------------------------
E------------------------------------

E-----20------------------20-------------------
B---------------20------------------20--19-19--
G--19----19-19-----19-19-----19-19-------------
D----------------------------------------------
A----------------------------------------------
E----------------------------------------------

E-----20------------------20-------------------
B---------------20------------------20--19-19--
G--19----19-19-----19-19-----19-19-------------
D----------------------------------------------
A----------------------------------------------
E----------------------------------------------

SE REPITEN TODOS LOS COROS


 FINAL

E--------------------------------
B--------------------------------
G--------------------------------
D--------------------------------
A---5---7---9---10--/--10--10----X4
E---3---5---7---8---/--8----8----
Suggest correction
Give kudos to tab author, rate the tab!
1 2 3 4 5
comments
print report bad tab
guest
Wanna post a correction for this tab? Suggest correction