Oops, an error
Loading. Please wait.

Amor Sin Condición Tab

version 3
version 3

Whole song

Interactive

39 views 1 this week
no commentswrite comment
1 2 3 4 5
3 more votes to show rating
add to favorites
launch autoscroll
font size
0
reset
how to read this tab
guitar tuner
×
Best way to learn
"Amor Sin Condición"
Autoscroll
slow
fast
+/-
esc
set tempo
stop
Intro:

Bajo:
A||--5h7-5h7--|| x16
E||-----------||

Guitar:
A||--5h7-5h7v-s4--|| x3   A||--5h7-5h7v-s15s7--|| x1
E||---------------||      E||------------------||

D||------5-----7-----9-----------||      D||------5-----7-----9----||
A||----5-----7-----9------10-10--|| x3   A||----5-----7-----9------|| x1
E||--3-----5-----7-----8---8-8---||      E||--3-----5-----7-----8--||

Verso:
    G                       D
De tal manera al mundo Tu amaste,
                        Em            C           D
que hasta Tu vida entregaste, Tu costado abierto fue.
    G                        D
Y fueron esas gotas de Tu sangre,
                     Em            C              D
que mi corazón limpiaron, me hiciste un nuevo ser.

Pre-coro:
G                 D
Gracias, te doy gracias,
        Em             C          D
por tu amor sin condición en esa cruz.
 G               D
Gracias, te doy gracias,
          Em            C           D
por tu perdón, la salvación en esa cruz.

Coro:
    G        D
// Amor sin condición,
    Em       C
   amor sin condición //

Intermedio:
G||-----------------------------------------------------
D||--------------5-5------5--------------7h9-9-7s5-7-5v-
A||--5h7-5h7v-s4-----7-5-7---5h7-5h7v-s4----------------

G |-------------------------------------------------||
D |------------------7---7---7s9s7------------------||
A |---5h7-5h7v-s4--5---5---5-------5h7-5h7v-s4-4s14-||

Verso x1
Pre-coro x1
Coro x2

Solo:
e||-------------|-------------|-15----------|-15-------15-|-20----------
B||-15----------|-15-------13-|----12-13-15-|----12-13----|----19-20----
G||----12-14----|----12-14----|-------------|-------------|----------19-
D||----------12-|-------------|-------------|-------------|-------------

e |----------|----20----------20-----------|----20----------20-----------||
B |----19-20-|----------20----------20--19-|----------20-----------20-19-||
G |-19-------|-19----19----19----19--------|-19----19----19----19--------||
D |----------|-----------------------------|-----------------------------||

Coro x2
Pre-coro x1

Final:
D||------5-----7-----9-----------||      D||------5-----7-----9----||
A||----5-----7-----9------10-10--|| x3   A||----5-----7-----9------|| x1
E||--3-----5-----7-----8---8-8---||      E||--3-----5-----7-----8--||
Suggest correction
Give kudos to tab author, rate the tab!
1 2 3 4 5
comments
print report bad tab
guest
You may want to rate the tab now too:
select rating
Wanna post a correction for this tab? Suggest correction