Oops, an error
Loading. Please wait.

Amor Sin Condición Tab

version 4
version 4

Whole song

Interactive

104 views 3 this week
no commentswrite comment
1 2 3 4 5
3 more votes to show rating
add to favorites
launch autoscroll
font size
0
reset
how to read this tab
guitar tuner
Autoscroll
slow
fast
+/-
esc
set tempo
stop
Help us to improve Ultimate-Guitar.com Take our survey!
×
 Hola les dejo esta tablatura de esta hermosa
 Alabanza Es de la versión Auditorio Nacional

 Intro.

 1 Parte (Guitarra y Bajo)
 E--------------------------------|
 B--------------------------------|
 G--------------------------------|
 D--------------5-----------------|
 A--5--7--5--7-----7--5v----5--7--|
 E------------------------7-------|

 E-----------------------------|
 B-----------------------------|
 G-----------------------------|
 D-----------5-----------------|
 A--7--5--7----7v--5-----5--7--|
 E--------------------7--------|

 E--------------------------------|
 B--------------------------------|
 G--------------------------------|
 D-----------5h7--5---------------|
 A--7--5--7----------5v-----5--7--|
 E-----------------------7--------|

 E--------------------------------|
 B--------------------------------|
 G--------------------------------|
 D-----------5h7--5---------------|
 A--7--5--7----------5v-----5--7--|
 E-----------------------7--------|

 2 Parte.
 Guitarra
 E-------------------|
 B-------------------|
 G-------------------|
 D-------------------|
 A--5h7-7p5-5h7v----|
 E----------------0--|

  Bajo

 E-------|
 B-------|
 G-------|
 D-------|
 A--5h7--|
 E-------|

  Guitarra

 E-------------------|
 B-------------------|
 G-------------------|
 D-------------------|
 A--5h7-7p5-5h7v----|
 E----------------0--|

  Bajo

 E-------|
 B-------|
 G-------|
 D-------|
 A--5h7--|
 E-------|

 Guitarra

 E-------------------|
 B-------------------|
 G-------------------|
 D-------------------|
 A--5h7-7p5-5h7v----|
 E----------------0--|

  Bajo

 E-------|
 B-------|
 G-------|
 D-------|
 A--5h7--|
 E-------|

 Guitarra
 E-------------------|
 B-------------------|
 G-------------------|
 D-------------------|
 A--5h7-7p5-5h7v----|
 E----------------0--|

 3 Parte.
 E-------------------------------------------------|
 B-------------------------------------------------|
 G-------------------------------------------------|
 D-------5--------7----------9----10---10----------|
 A-----5--------7---------9-------10---10-----x3---|
 E--3------3s5-------5s7-------8---8----8----------|


 E---------------------------------|
 B---------------------------------|
 G---------------------------------|
 D-------5--------7---------9------|
 A-----5--------7---------9--------|
 E--3------3s5-------5s7------8v---|


 Verso.
    G                           D
 De tal manera al mundo tu amaste

                        Em
 que hasta Tu vida entregaste

       C              D
 Tu costado abierto fue

    G                          D
 Y fueron esas gotas de Tu sangre

                  Em
 Que mi corazon limpiaron

       C              D
 me hiciste un nuevo ser


 Coro
 G               F#m    D
 Gracias, te doy gracias

         Em            C              D
 Por Tu amor sin condicion en esa cruz

 G               F#m    D
 Gracias, Te doy gracias

         Em             C             D
 Por tu perdon la salvacion en esa cruz


 G        D
 Amor Sin Condicion

 G    C   Bm C D
 Amor Sin Condicion X2


 G        D
 Amor Sin Condicion

 C    C   Bm C D
 Amor Sin Condicion X2


 Intro (Parte 1)


 Verso.
    G                           D
 De tal manera al mundo tu amaste

                        Em
 que hasta Tu vida entregaste

       C              D
 Tu costado abierto fue
 A--10-9-7------|
 E---------10--|

    G                          D
 Y fueron esas gotas de Tu sangre

                  Em
 Que mi corazon limpiaron

       C              D
 me hiciste un nuevo ser
 E-------------19-----|
 B-19-19-19-19----20--|

 Coro
 G               F#m    D
 Gracias, te doy gracias

         Em            C              D
 Por Tu amor sin condicion en esa cruz

 G               F#m    D
 Gracias, Te doy gracias

         Em             C             D
 Por tu perdon la salvacion en esa cruz


 G        D
 Amor Sin Condicion

 G    C   Bm C D
 Amor Sin Condicion


 G        D
 Amor Sin Condicion

 C    C   Bm C D
 Amor Sin Condicion


 Solo Guitarra.(es difícil)


  G        D
 Amor Sin Condicion

 G    C   Bm C D
 Amor Sin Condicion


 G        D
 Amor Sin Condicion

 C    C   Bm C D
 Amor Sin Condicion


 G               F#m    D
 Gracias, te doy gracias

         Em            C              D
 Por Tu amor sin condicion en esa cruz
 A--10-9-7------|
 E---------10--|
 G               F#m    D
 Gracias, Te doy gracias

         Em             C             D
 Por tu perdon la salvacion en esa cruz

 Intro(Parte 3)

 OJala les hay a gustado
Suggest correction
Give kudos to tab author, rate the tab!
1 2 3 4 5
comments
print report bad tab
guest
You may want to rate the tab now too:
select rating
Wanna post a correction for this tab? Suggest correction