Oops, an error
Loading. Please wait.

Amor Sin Condición Bass

version 1
version 1

Whole song

Interactive

123 views 1 this week
no commentswrite comment
1 2 3 4 5
3 more votes to show rating
add to favorites
launch autoscroll
font size
0
reset
guitar tuner
×
Best way to learn
"Amor Sin Condición"
Autoscroll
slow
fast
+/-
esc
set tempo
stop
buenas, les voy a enseñar este tema que parece complicado,pero
no lo es es solo practica

Intro:
G|-----------------------------------
D|-----------------------------------
A|---5-3---7-5---9-7-------3-3------- X4
E|--3----5-----7-----8---------------

Verso: De tal manera.....
G|---------------------------------------
D|---------------------------------------
A|---------5(10)-7(5)-3(10)-5(18)--------
E|---3(10)-------------------------------

0:26 (ESTO ES UN ARREGLO MIO Y SE TIENE QE HACER MUY RAPIDO)
G|-------7-5------------------------
D|---7-5-----7-5-7------------------
A|----------------------------------
E|----------------------------------

Verso 2: Y fueron esas gotas de tu....
G|---------------------------------------
D|---------------------------------------
A|---------5(10)-7(5)-3(10)-5(18)--------
E|---3(10)-------------------------------

Interlude: Gracias Gracias.....
G|-----------------------------------------------
D|-----------------------------------------------
A|------------5-5-5-5-5-7-7-7-3-3-3-3-3-5-5-5-5-- X2
E|--3-3-3-3-3------------------------------------

Coro:
G|---------------------------------
D|---------------------------------
A|-------5(16)-2(16)-3(16)--------- X2
E|--3(16)--------------------------

Intro y termina en C

Despues el Reprise Amado Salvador las notas son
F#-C#-E-Bm

bueno esa es la cancion solo escuchenla bien yo le puse
cuantas veses se toca () pero ustedes haganlo a su
gusto!! saludos de argentina!

cualquier consulta-sugerencia este es mi mail
bassesmen@
Suggest correction
Give kudos to tab author, rate the tab!
1 2 3 4 5
comments
print report bad tab
guest
You may want to rate the tab now too:
select rating
Wanna post a correction for this tab? Suggest correction