Oops, an error
Loading. Please wait.

Amor Sin Condición Tab

version 5
version 5

Whole song

Interactive

96 views 1 this week
no commentswrite comment
1 2 3 4 5
3 more votes to show rating
add to favorites
launch autoscroll
font size
0
reset
how to read this tab
guitar tuner
×
Best way to learn
"Amor Sin Condición"
Autoscroll
slow
fast
+/-
esc
set tempo
stop
corregida y hecha por jose "chame" cualquier problema con el solo
escribir a mi correo ... system_bullet-chemical@ por algun
video turotial o ayuda.
----------------------------------------------------------------------
 Hola les dejo esta tablatura de esta hermosa
 Alabanza Es de la versión Auditorio Nacional

 Intro.

 1 Parte (Guitarra y Bajo) esta frase se repite 4 veses
 E------------------------------------|
 B------------------------------------|
 G------------------------------------|
 D------------------------------------|
 A----7---5h7--------7---5v----5h7----|
 E-00---0------0-5-0---0-----7--------|
   ..   .      .   .   .


 2 Parte. se repite 4 veses
 Guitarra
 E-------------------------|
 B-------------------------|
 G-------------------------|
 D-------------------------|
 A--5h7---5h7v---------(7)-|
 E------0--------0---------|
        .


 3 Parte.
 E-------------------------------------------------|
 B-------------------------------------------------|
 G-------------------------------------------------|
 D-------5--------7----------9----10---10----------|
 A-----5--------7---------9-------10---10-----x3---|
 E--3------3s5-------5s7-------8---8----8----------|


 E---------------------------------|
 B---------------------------------|
 G---------------------------------|
 D-------5--------7---------9------|
 A-----5--------7---------9--------|
 E--3------3s5-------5s7------8v---|


 Verso.
    G     D      Em    C   D
 E------------------------------------|
 B------------------------------------|
 G------------------------------------|
 D--------4------5----2---4-----------|
 A--2-----5------7----3---5-----------|
 E--3---------------------------------|
en el verso se tocan las notas pero en terceras arriba esta la
estructura de las terceras.


 PUENTE
 G5                 D5
 Gracias, te doy gracias

      E5            C5              D5
 Por Tu amor sin condicion en esa cruz

 G5             F5    D5
 Gracias, Te doy gracias

         E5             C5           D5
 Por tu perdon la salvacion en esa cruz


  CORO
 G5       D5
 Amor Sin Condición
  B5      C5
 Amor Sin Condición


 =Intro (Parte 1)=


 Verso. acuérdense que son las notas en terceras

    G                           D
 De tal manera al mundo tu amaste

                        Em
 que hasta Tu vida entregaste

       C              D
 Tu costado abierto fue
 D-5-4-2-0----|


    G                          D
 Y fueron esas gotas de Tu sangre

                  Em
 Que mi corazon limpiaron

       C              D
 me hiciste un nuevo ser
 E---------(7) -----------|
 B-----(7)-----(7)--------|
 G-(7)-------------(5)----|


 PUENTE
 G5                 D5
 Gracias, te doy gracias

      E5            C5              D5
 Por Tu amor sin condicion en esa cruz

 G5             F5    D5
 Gracias, Te doy gracias

         E5             C5           D5
 Por tu perdon la salvacion en esa cruz


  CORO
 G5       D5
 Amor Sin Condición
  B5      C5
 Amor Sin Condición


 Solo Guitarra.(es difícil)

E-15-15-15--------------------------|
B----------12-12-12-13-13-13---15v--|
G-----------------------------------|
D-----------------------------------|
A-----------------------------------|
E-----------------------------------|

E-15-15-15-------------------------------|
B----------12-12-12-13-13-13---15v-------|
G------------------------------------12v-|
D----------------------------------------|
A----------------------------------------|
E----------------------------------------|

E-15-15-15--------------------------|
B----------12-12-12-13-13-13---15v--|
G-----------------------------------|
D-----------------------------------|
A-----------------------------------|
E-----------------------------------|

E-15-15-15--------------------------|
B----------12-12-12-13-13-13---15*--|
G-----------------------------------|
D-----------------------------------|
A-----------------------------------|
E-----------------------------------|

E-17p15-19p15-17p15------17p15-19p15-17p15----17p15-19p15-17p15-------|
B-------------------17v-------------------17v-------------------17p15-|
G---------------------------------------------------------------------|
D---------------------------------------------------------------------|
A---------------------------------------------------------------------|
E---------------------------------------------------------------------|

E-17p15-19p15-17p15------17p15-19p15-17p15---------|
B-------------------17v-------------------17v------|
G--------------------------------------------------|
D--------------------------------------------------|
A--------------------------------------------------|
E--------------------------------------------------|

E----------15h17h19--19p17p15-------------|
B-15h17h19----------------------19-17-----|
G--------------------------------------16-|
D-----------------------------------------|
A-----------------------------------------|
E-----------------------------------------|

E-------------------------------22-------------|
B-17b19--17b19--17b19r17p15--22b24--22b24--20--|
G----------------------------------------------|
D----------------------------------------------|
A----------------------------------------------|
E----------------------------------------------|

E-----------------------------------------|
B--17b19r17--15---------------------------|
G---------------17-16-14------------------|
D-------------------------17-16-14--------|
A----------------------------------17-----|
E-------------------------------------15--|

  CORO
 G5       D5
 Amor Sin Condición
  B5      C5
 Amor Sin Condición

 PUENTE
 G5                 D5
 Gracias, te doy gracias

      E5            C5              D5
 Por Tu amor sin condicion en esa cruz

 G5             F5    D5
 Gracias, Te doy gracias

         E5             C5           D5
 Por tu perdon la salvacion en esa cruz
                            D-5-4-2-0----|

 G5                 D5
 Gracias, te doy gracias

      E5            C5              D5
 Por Tu amor sin condicion en esa cruz

 G5             F5    D5
 Gracias, Te doy gracias

         E5             C5           D5
 Por tu perdon la salvacion en esa cruz


 =Intro(Parte 3)=

 OJala les hay a gustado
Suggest correction
Give kudos to tab author, rate the tab!
1 2 3 4 5
comments
print report bad tab
guest
You may want to rate the tab now too:
select rating
Wanna post a correction for this tab? Suggest correction