Oops, an error
Loading. Please wait.

Arde En Mí Tab

version 1
version 1

Whole song

49 views 1 this week
no commentswrite comment
1 2 3 4 5
3 more votes to show rating
add to favorites
×
Save as Personal and add changes to this tab that will be seen only by you. Learn more ›
×
You can save this tab as Personal to edit and correct it or add notes. All changes will be seen only by you. Learn more »
save as personal
new!
launch autoscroll
font size
0
reset
how to read this tab
guitar tuner
Autoscroll
slow
fast
+/-
esc
set tempo
stop
INTRO:X2
  Em   D/E  Cmaj7/E   Bm Cmaj Em/A D/A  Cmaj7/A Bm Cmaj7
E-0----0------0--------------------------------------------
A-----------------------------0----0-----0-----------------
D---9----7---------5---4--5-----9----7-------5--4--5-------
G---9----7-------4-----4--4-----9----7-----4----4--4------
B---8----7----5--------3--5-----8----7---5------3--5-------
e----------------------------------------------------------
ESTA INTRO LA HACEN 2 VECES AL FINAL DE LA INTRO SOLAMENTE
HACEN EL ARMONICO CON EL DEDO MEÑIQUE MAS O MENOS
EN EL TRASTE 5 POR QUE SE QUEDAN EN Cmaj7/A
LAS ESTROFAS VAN IGUAL CON ESE MISMO TAB

E    D/E   Cmaj/E Bm Cmaj7
EL BRILLO DE TU ROSTRO
Em/A    D/A Cmaj7/A Bm Cmaj7
ALUMBRA MI OSCURIDAD
E     D/E  Cmaj7/E  Bm Cmaj7
TE ACUERDAS QUE SOY POLVO
      Em/A   D/A     Cmaj7/A Bm Cmaj7
Y ME VUELVES A INSPIRAR

AQUÍ VA UN ARPEGIO EN
C            B7            Am7          Em_F_Em
ME ACERCO ANTE EL TRONO EN MI DEBILIDAD
C
ERES FUERTE
       D    D6
ERES FUERTE

CORO
G
TU VIENTO SOPLA
Em7
COMO UN ESTRUENDO
C             Am7
AVIVA HOY EL FUEGO
  C        D
AVIVAME SEÑOR
G
TU FUEGO QUEMA
Em7              C
ARDE EN MI ESPIRITU
    D
RADIANTE

INTRO: A QUI VA NUEVAMENTE EL TAB.

ESTOY TAN LISTO ESTOY DISPUESTO MI JESÚS

MI CORAZON TE OFRESCO NADIE ES COMO TU

ME ACERCO ANTE EL TRONO EN MI DEBILIDAD

ERES FUERTE

ERES FUERTE

CORO: X 2VECES
Cmaj7/E         Am7
ARDE EN MI SEÑOR  ARDE EN MI SEÑOR
Cmaj7/E         Am7
ARDE EN MI SEÑOR  ARDE EN MI SEÑOR
Cmaj7/E          Am7
ARDE EN MI SEÑOR  ARDE EN MI SEÑOR
Cmaj7/E         Am7
ARDE EN MI SEÑOR  ARDE EN MI SEÑOR
Cmaj7/E         Am7
ARDE EN MI SEÑOR  ARDE EN MI
Cmaj7/E         Am7
ARDE EN MI SEÑOR  ARDE EN MI SEÑOR

ESTE Cmaj7/E es igual al de la intro
ACA SOLAMENTE VA UN RASGUEADO
G
TU VIENTO SOPLA
Em7
COMO UN ESTRUENDO

aquí va un arpegio
  C
AVIVA HOY EL FUEGO
 Am7       D
AVIVAME SEÑOR

Aquí ya va normal
G
TU FUEGO QUEMA
Em7
ARDE EN MI ESPIRITU
    D
RADIANTE

DEPUSE VA EL CORO NUEVAMENTE
Y TEMINA CON EL TAB. DE LA INTRO


AQUÍ LES EXPLICO EL LIGADO QUE VA EN EL PEDAZO DE
?ME ACERCO ANTE EL TRONO EN MI DEBILIDAD  Em_F_Em
   Em_F_Em
E----------------------------------------------------------
A----------------------------------------------------------
D----------------------------------------------------------
G---5--7--5------------------------------------------------
B---4--6--4------------------------------------------------
e---3--5--3----------------------------------------------

EN EL SEÑOR JESÚS LOS SALUDO HERMANOS ESPERO QUE LES GUSTE
PUEDEN INCLUIRME EN EL MESSENGER
jjopj@
jjopj5_10@
Suggest correction
Give kudos to tab author, rate the tab!
1 2 3 4 5
comments
print report bad tab
guest
Wanna post a correction for this tab? Suggest correction